Cifra Club

Aprenda

Universe

Scars on Broadway

Cifra: Principal (violão e guitarra)
tom: Db
Afinação em DROP C a afinação que o Daron usava no SOAD e está usando agora. para quem não sabe afine em : 
Db - Ab - Db - Gb - Bb - Eb

.........PM..........
---------------------|
---------------------|
---------------------|
---------------------|
---------------------|
-7777799101012121212-|

.......PM........
-------------------|
-------------------|
-------------------|
-------------------|
-------------------|
-55555779910101010-|

.......PM........
----------------|
----------------|
----------------|
----------------|
----------------|
-33333557799999-|

---000000-|
---000000-|
---000000-|
-22222222-|
-22222222-|
----------|

----------------------|
----------------------|
----------------------|
-7-7-9-10-12-12-12-12-|
-7-7-9-10-12-12-12-12-|
-7-7-9-10-12-12-12-12-|

---------------------|
---------------------|
---------------------|
-5-5-7-9-10-10-10-10-|
-5-5-7-9-10-10-10-10-|
-5-5-7-9-10-10-10-10-|

-----------------|
-----------------|
-----------------|
-3-3-5-7-9-9-9-9-|
-3-3-5-7-9-9-9-9-|
-3-3-5-7-9-9-9-9-|

---000000-|
---000000-|
---000000-|
-22222222-|
-22222222-|
----------|

------------------|
------------------|
-5----7----9---10-|
-7----9---10---12-|
------------------|
------------------|

-----------------|
-----------------|
-4----5---7----9-|
-5----7---9---10-|
-----------------|
-----------------|

----------------| ----------------|
----------------| ----------------|
-2----4---5---7-| -2--------------|
-3----5---7---9-| -3----0---1---3-|
----------------| ------2---3---5-|
----------------| ----------------|

-----0--|
-----0--|
-1---1--|
-2---2--|Faça um "Strum Up"
-2---2--|
--------|

---------------------------------------------------------------|
---------------------------------------------------------------|
--9--7-----7---9--10---9--7--10---9----7--5----5--7---9--7--5--|
-10--9-----9--10--12--10--9--12--10----9--7----7--9--10--9--7--|
---------------------------------------------------------------|
---------------------------------------------------------------|
essa é a parte do  "mother...."

Dê uma pausa aqui..
---------------|------------------------------------------------|
---------------|------------------------------------------------|
---------------|------------------------------------------------|
--8--7----5--4-|--7---8--10---8--7-10---------------------------|
-10--9----7--6-|--9--10--12--10--9-12---------------------------|
---------------|------------------------------------------------|

------------------------------------------------------------------------|
-10-10-10-10--10-10------------------------------10---------------------|
--------------------9--9-9-12-10-10-10-10--12-12----10-9-9-9-9-10-10----|
------------------------------------------------------------------------|
------------------------------------------------------------------------|
------------------------------------------------------------------------|

---------------------------------------------------------------|
---------------------------------------------------------------|
-9-7-7-7-5-4-4-4-4---------------------------------------------|
--------------------7-6----------------------------------------|
---------------------------------------------------------------|
---------------------------------------------------------------|

Neste momento já faz parte da segunda parte.

-12-12-12-12-12-13-13-15-13-13-13-13-12-12-10-10-12-12-12-13-13-12-12-|rápido
----------------------------------------------------------------------|
----------------------------------------------------------------------|
----------------------------------------------------------------------|
----------------------------------------------------------------------|
----------------------------------------------------------------------|

-10-8-7-5----7-5---------------|
-----------8-----8-6-5--3------|
---------------------------5-4-|
-------------------------------|
-------------------------------|
-------------------------------|
Composição de Daron Malakian
Colaboração e revisão:
  • danielfs
  • Henrique Lyra
7.564 exibições
    • ½ Tom
    • A
    • Bb
    • B
    • C
    • Db
    • D
    • Eb
    • E
    • F
    • F#
    • G
    • Ab
  • Adicionar à lista

    0 comentários

    Ver todos os comentários

    Conseguiu tocar?

    4 Tocaram 0 Ainda não

    Grave um vídeo tocando Universe e nos envie!

    00:00 / 00:00
    Outros vídeos desta música
    Repetir Qualidade Automático
    Outros vídeos desta música
    00:00 / 00:00
    Automático

    Cifra Club Pro

    Aproveite o Cifra Club com benefícios exclusivos e sem anúncios
    Cifra Club Pro
    Aproveite o Cifra Club com benefícios exclusivos e sem anúncios
    OK