Cifra Club

Aprenda

Princesa (Torta de Maçã)

Scatolove

Cifra: Principal (violão e guitarra)
Já pensou em usar uma coleção de roupas do Cifra Club? Responda as perguntas abaixo e nos ajude nessa missão! →
tom: F
E|--------------------------------------------|
B|-3------------6----10-----------------------|
G|-------------------------9------------------|
D|--------------------------------------------|
A|-5-5-5-5-5-5--8-8--12-12--------------------|
E|-------------------------12-12-12-12-12-12--|

E|-----5--3-----------------------------------|
B|-----------6----6---10----------------------|
G|-5---------------------9--------------------|
D|--------------------------------------------|
A|-----5-5-5-5-5--8---12----------------------|
E|-8-8-------------------12-12-12-12-12-12----|

( D5  F5  A5  E5  C5 )
( D5  F5  A5  E5  C5 )

Dm
Silêncio, me grita
F
Me salva desse espelho
Am
Reflete mentiras
C                            Dm
Me diz que não estou presa aqui
       F          Am
Torre desse Castelo
   F                   Am                    Gm
Eu Como a torta de maçã pra não fazer desfeita
Garfos pro lado e eu me finjo satisfeita
Dm                                    C       Gm
Aprendi bem Cedo a ser uma linda princesa, na mesa
Cumprindo ordens de etiqueta

( D5  F5  A5  E5  C5 )
( D5  F5  A5  E5  C5 )
( D5  F5  A5  E5  C5 )

Dm
Engulo os sapos
F
Finjo está Com fome
Am
A Culpa sempre minha
C
Sou eu que exagero
Dm                    F
Mesmo querendo me soltar
                Am            C               Dm
O mundo vai negar, dizendo que eu sou a bruxa
             F         Am       C
Sei que não é faz de Conta *Fogueira tá no sangue*
   F                   Am                    Gm
Eu Como a torta de maçã pra não fazer desfeita
Garfos pro lado e me finjo satisfeita
Dm                                    C       Gm
Aprendi bem Cedo a ser uma linda princesa, na mesa
Cumprindo ordens de etiqueta
Dm                    Am                     Gm
Eu Como a torta de maçã pra não fazer desfeita
Seguindo regras de etiqueta
Dm          Am                     C
Tanto veneno que a gente deixa ecoar por dentro
         Gm
Vem destrói e segue o vento
                     F5  E5                  G5
Eu Como a torta de maçã pra não fazer desfeita
                              C5
Garfos pro lado e eu me finjo e eu me finjo
D5                                     C5     Gm
Aprendi bem Cedo a ser uma linda princesa, na mesa
Cumprindo ordens de etiqueta
    D5              A5                      Bb5
Eu Como a torta de maçã pra não fazer desfeita
                         D5
Seguindo regras de etiqueta... ta... ta

E|--------------------------------------------|
B|-3------------6----10-----------------------|
G|-------------------------9------------------|
D|--------------------------------------------|
A|-5-5-5-5-5-5--8-8--12-12--------------------|
E|-------------------------12-12-12-12-12-12--|

E|-------------------------------------------------|
B|------3------------6----10-----------------------|
G|-5----------------------------9------------------|
D|-------------------------------------------------|
A|------5-5-5-5-5-5--8-8--12-12--------------------|
E|-8-8--------------------------12-12-12-12-12-12--|

E|---------------------------------------------------|
B|-3------------6----10------------------------------|
G|-------------------------9-------------------------|
D|-------------------------------------------10---12-|
A|-5-5-5-5-5-5--8-8--12-12---------------------------|
E|-------------------------12-12-12-12-12-12--8---10-|

Compositor não encontrado.
Colaboração e revisão:
  • Jonas Silva
  • Yuri Bispo
17.754 exibições
    • ½ Tom
    • A
    • Bb
    • B
    • C
    • Db
    • D
    • Eb
    • E
    • F
    • F#
    • G
    • Ab
  • Adicionar à lista

    0 comentários

    Ver todos os comentários

    Conseguiu tocar?

    16 Tocaram 2 Ainda não

    Grave um vídeo tocando Princesa (Torta de Maçã) e nos envie!

    00:00 / 00:00
    Outros vídeos desta música
    Repetir Qualidade Automático
    Outros vídeos desta música
    00:00 / 00:00
    Automático

    Cifra Club Pro

    Aproveite o Cifra Club com benefícios exclusivos e sem anúncios
    Cifra Club Pro
    Aproveite o Cifra Club com benefícios exclusivos e sem anúncios
    OK