Cifra Club

Born To Touch Your Feeling

Scorpions

Cifra: Principal (violão e guitarra)
exibições 4.503
Tom: C
      Am                         F                        E
E |--5--5--5--5--5--5--5--5--|--5--5--5--5--5----5----|--0--0--0--0--0----0----|
B |--5--5--5--5--5--5--5--5--|--6--6--6--6--6----6----|--0--0--0--0--0----0----|
G |--5--5--5--5--5--5--5--5--|--5--5--5--5--5----5----|--1--1--1--1--1----1----|
D |--7--7--7--7--7--7--7--7--|--7--7--7--7--7----7----|--2--2--2--2--2----2----|
A |--------------------------|------------------------|--2--2--2--2--2----2----|
E |--------------------------|------------------------|------------------------|

    Am                    Am                       F
--5--5--5--5--5------|--5--5--5--5--5----5----|--5--5--5--5--5----5----|
--5--5--5--5--5------|--5--5--5--5--5----5----|--6--6--6--6--6----6----|
--5--5--5--5--5------|--5--5--5--5--5----5----|--5--5--5--5--5----5----|
--7--7--7--7--7------|--7--7--7--7--7----7----|--7--7--7--7--7----7----|
---------------------|------------------------|------------------------|
---------------------|------------------------|------------------------|

    E                        Am                       G
--0--0--0--0--0----0----|--5--5--5--5--5----5----|--3--3--3--3--3----3----|
--0--0--0--0--0----0----|--5--5--5--5--5----5----|--3--3--3--3--3----3----|
--1--1--1--1--1----1----|--5--5--5--5--5----5----|--4--4--4--4--4----4----|
--2--2--2--2--2----2----|--7--7--7--7--7----7----|--5--5--5--5--5----5----|
--2--2--2--2--2----2----|------------------------|--5--5--5--5--5----5----|
------------------------|------------------------|------------------------|

    C                              Dm                  F
--8---8---8---8---8-----8-----|--5----------------|--5--5--5--5--5----5-------|
--8---8---8---8---8-----8-----|--6----------------|--6--6--6--6--6----6-------|
--9---9---9---9---9-----9-----|--7----------------|--5--5--5--5--5----5-------|
--10--10--10--10--10----10----|--7----------------|--7--7--7--7--7----7-------|
--10--10--10--10--10----10----|--5----------------|---------------------------|
------------------------------|-------------------|---------------------------|

    E                        Am
--0--0--0--0--0----0----|--5--5--5--5--5--------|
--0--0--0--0--0----0----|--5--5--5--5--5--------|
--1--1--1--1--1----1----|--5--5--5--5--5--------|
--2--2--2--2--2----2----|--7--7--7--7--7--------|
--2--2--2--2--2----2----|-----------------------|
------------------------|-----------------------|

   I              was  born        from the sound of       the strings
E |-----------5--------|---------5-------|----------5-------|---------5---------|
B |--------5-----5-----|-----5-----5-----|------5-----5-----|------5-----5------|
G |-----5-----------5--|---5-----------5-|----5-----------5-|----5-----------5--|
D |--7-----------------|7----------------|-7----------------|-7-----------------|
A |--------------------|-----------------|------------------|-------------------|
E |--------------------|-----------------|------------------|-------------------|

                       For      someone   to     give       everything
E |-----------0--------|---------0-------|----------0-------|----------0--------|
B |--------3-----3-----|------3-----3----|-------3-----3----|-------3-----3-----|
G |-----4-----------4--|---4-----------4-|----4-----------4-|----4-----------4--|
D |--3-----------------|3----------------|-3----------------|-3-----------------|
A |--------------------|-----------------|------------------|-------------------|
E |--------------------|-----------------|------------------|-------------------|

                       To     be         a       song    just    for     your
E |-----------0--------|---------0-------|----------0-------|----------0--------|
B |--------5-----5-----|------5-----5----|-------3-----3----|-------1-----1-----|
G |-----4-----------4--|---4-----------4-|----4-----------4-|----4-----------4--|
D |--2-----------------|2----------------|-2----------------|-2-----------------|
A |--------------------|-----------------|------------------|-------------------|
E |--------------------|-----------------|------------------|-------------------|

   feeling
E |-----------5--------|---------0-------|----------0-------|----------0--------|
B |--------5-----5-----|------3-----3----|-------6-----6----|-------5-----5-----|
G |-----5-----------5--|---4-----------4-|----5-----------5-|----4-----------4--|
D |--7-----------------|5----------------|-3----------------|-2-----------------|
A |--------------------|-----------------|------------------|-------------------|
E |--------------------|-----------------|------------------|-------------------|

   Close         your eyes              and I'll try to    get in
E |-----------5--------|---------5-------|----------5-------|---------5---------|
B |--------5-----5-----|-----5-----5-----|------5-----5-----|------5-----5------|
G |-----5-----------5--|---5-----------5-|----5-----------5-|----5-----------5--|
D |--7-----------------|7----------------|-7----------------|-7-----------------|
A |--------------------|-----------------|------------------|-------------------|
E |--------------------|-----------------|------------------|-------------------|

                     To                waken your     heart like the spring
E |-----------0--------|---------0-------|----------0-------|----------0--------|
B |--------3-----3-----|------3-----3----|-------3-----3----|-------3-----3-----|
G |-----4-----------4--|---4-----------4-|----4-----------4-|----4-----------4--|
D |--3-----------------|3----------------|-3----------------|-3-----------------|
A |--------------------|-----------------|------------------|-------------------|
E |--------------------|-----------------|------------------|-------------------|

                  Cause I    was        born to           touch your
E |-----------0--------|---------0-------|----------0-------|----------0--------|
B |--------5-----5-----|------3-----3----|-------1-----1----|-------5-----5-----|
G |-----4-----------4--|---4-----------4-|----4-----------4-|----4-----------4--|
D |--2-----------------|2----------------|-2----------------|-2-----------------|
A |--------------------|-----------------|------------------|-------------------|
E |--------------------|-----------------|------------------|-------------------|

    feelings
E |-----------5--------|---------0-------|----0--------0----|---0--------0------|
B |--------5-----5-----|------3-----3----|-6----6--------6--|5-----5--------5---|
G |-----5-----------5--|---4-----------4-|----------5-------|----------4--------|
D |--7-----------------|5----------------|-3----------------|2------------------|
A |--------------------|-----------------|------------------|-------------------|
E |--------------------|-----------------|------------------|-------------------|

E |-----5--------5--------|
B |--------5--------5-----|
G |-----------5-----------|
D |--7-----------------7--| then Chorus(strum) (chords C G Dm C E Am) (repeat)
A |-----------------------|
E |-----------------------|

   spoken foreign languages
E |-----------5--------|---------5-------|----------5-------|----------5--------|
B |-----5--------5-----|---5--------5----|----6--------6----|----6--------6-----|
G |--------5--------5--|------5--------5-|-------7--------7-|-------7--------7--|
D |--7-----------------|7----------------|-7----------------|-7-----------------|
A |--------------------|-----------------|------------------|-------------------|
E |--------------------|-----------------|------------------|-------------------|

E |-----------7--------|---------7-------|---------8--------|----------8--------|
B |-----8--------8-----|---8--------8----|----10-------10---|-----10-----10-----|
G |--------7--------7--|------7--------7-|-------9--------9-|--------9-------9--|
D |--5-----------------|5----------------|-7----------------|-7-----------------|
A |--------------------|-----------------|------------------|-------------------|
E |--------------------|-----------------|------------------|-------------------|

(ending)
E |-----------5--------|---------5-------|----------5-------|----------5--------|
B |--------5-----5-----|------5-----5----|-------6-----6----|-------6-----6-----|
G |-----5-----------5--|---5-----------5-|----7-----------7-|----7-----------7--|
D |--7-----------------|7----------------|-7----------------|-7-----------------|
A |--------------------|-----------------|------------------|-------------------|
E |--------------------|-----------------|------------------|-------------------|

                                                               (back to ending)
E |-----------7--------|---------7-------|-----------8------------------8-------|
B |--------8-----8-----|------8-----8----|-------10-----10----------10----10----|
G |-----7-----------7--|---7-----------7-|----9-------------9----9------------9-|
D |--5-----------------|5----------------|-7-------------------7----------------|
A |--------------------|-----------------|--------------------------------------|
E |--------------------|-----------------|--------------------------------------|
Acordes para:
    Composição: Klaus Meine / Rudolf Schenker Colaboração e revisão:
    • Hellektra

    0 comentários

    mostrar mais comentários

    Conseguiu tocar?

    0 tocaram 0 ainda não

    Grave um vídeo tocando Born To Touch Your Feeling e mande pra gente!

    00:00 / 00:00
    outros vídeos desta música
    repetir qualidade Automático
    Outros vídeos desta música
    00:00 / 00:00
    Automático
    OK