Cifra Club

Dynamite

Scorpions

Cifra: Versão 3 (violão e guitarra)
tom: G
play this riff in the intro and chorus:

e|-----------------|----------------|----------------|
 |-----------------|----------------|----------------|
 |-----------------|----------------|--5----9--9--7--|
 |--5-----5--5--5--|----------------|--5----9--9--7--|
 |--7-----7--7--7--|----7--7--5--2--|--3----7--7--5--|
E|--0-----8--8--7--|----5--5--3--0--|----------------|

  1.)            // 2.)                
e|----------------|--------------------|
 |----------------|--------------------|
 |----4--4--5--4--|--7--7--7--7--7--7--|
 |----4--4--5--4--|--7--7--7--7--7--7--|
 |----2--2--3--2--|--5--5--5--5--5--5--|
E|----------------|--------------------|

Rhythm to the solo:

   3x                                          
e|-------------------|--------------------------||----------------|
 |-------------------|-----!-----!-----!-----!--||----------------|
 |--12----11--11--9--|--^--!--^--!--^--!--^--!--||--5----7--7--5--|
 |--12----11--11--9--|--!--!--!--!--!--!--!--!--||--5----7--7--5--|
 |--10-----9---9--7--|--!--V--!--V--!--V--!--V--||--3----5--5--3--|
E|-------------------|--------------------------||----------------|

e|----------------------|
 |----------------------|
 |----7--7--^--!--^--!--|
 |----7--7--!--!--!--!--|
 |----5--5--!--V--!--V--|
E|----------------------|

The guitar break:
     D
e|--------------------|--------------------------|
 |--^-----!--^--!--^--|-----!--^--!--^--!--^--!--|
 |--|--%--!--!--!--|--|--%--!--!--!--!--!--!--!--|
 |--|-----!--!--!--|--|-----!--!--!--!--!--!--!--|
 |--|-----V--!--V--|--|-----V--!--V--!--V--!--V--|
E|--------------------|--------------------------|
Compositor não encontrado.
Colaboração e revisão:
  • Leonardo Lamesa
620 exibições
    • ½ Tom
    • A
    • Bb
    • B
    • C
    • Db
    • D
    • Eb
    • E
    • F
    • F#
    • G
    • Ab
  • Adicionar à lista

    0 comentários

    Ver todos os comentários

    Conseguiu tocar?

    0 Tocaram 0 Ainda não

    Grave um vídeo tocando Dynamite e nos envie!

    00:00 / 00:00
    Outros vídeos desta música
    Repetir Qualidade Automático
    Outros vídeos desta música
    00:00 / 00:00
    Automático

    Cifra Club Pro

    Aproveite o Cifra Club com benefícios exclusivos e sem anúncios
    Cifra Club Pro
    Aproveite o Cifra Club com benefícios exclusivos e sem anúncios
    OK