Cifra Club

Make It Real

Scorpions

Cifra: Principal
exibições 4.875
Tom: C
Introdução:

Rudolf Schenker:
|-------------------------------------|
|--6--6---6--6--x---------------------|
|--7--7---7--7--x-----5-----5--5--5---|
|--7--7---7--7--x-----5-----5--5--5---|
|--5--5---5--5--x-----3-----3--3--3---|
|-------------------------------------|

Matthias Jabs:
|-------------------------------------------------------------------|
|----------------8br---6-8------13----------------13br13--10--13----|
|-/7-9-9br-7-\-5-------------------10--12br12-10--------------------|
|-------------------------------------------------------------------|
|-------------------------------------------------------------------|
|-------------------------------------------------------------------|

|--10-12-13-12-10----15br15--13h15------20--------------20br--17-20b-|
|-----------------13-----------------------18h20br-18----------------|
|--------------------------------------------------------------------|
|--------------------------------------------------------------------|
|--------------------------------------------------------------------|
|--------------------------------------------------------------------|



Verse:
 D5          Bb5          F5          G5
|------------------------------------------------|
|------------------------------------------------|
|7-7-7-7-----3-3-3-3-----------------------------|
|7-7-7-7-----3-3-3-3------3-3-3-3-----5-5-5-5----|
|5-5-5-5-----1-1-1-1------3-3-3-3-----5-5-5-5----|
|-------------------------1-1-1-1-----3-3-3-3----| 
  p.m...    p.m.....      p.m....     p.m....

 

You can always trust your inner feelings 
'Cause they always tell the truth 
Where did it get you, then your analyzing 
Just do what feels right for you  
If you take life as a crazy gamble 
Throw your dice take your chance 
You will see it from the different angle 
And you too can join the dance

Refrão:
Rudolf Schenker:
|-------------------------------------|
|--6--6---6--6--x---------------------|
|--7--7---7--7--x-----5-----5--5--5---|
|--7--7---7--7--x-----5-----5--5--5---|
|--5--5---5--5--x-----3-----3--3--3---|
|-------------------------------------|

Matthias Jabs:
|-----------------------------------------------------|
|--8br---6-8------13----------------13br13--10--13----|
|--------------------10--12br12-10--------------------|
|-----------------------------------------------------|
|-----------------------------------------------------|
|-----------------------------------------------------|

|--10-12-13-12-10----15br15--13h15------20--------------20br--17-20b-|
|-----------------13-----------------------18h20br-18----------------|
|--------------------------------------------------------------------|
|--------------------------------------------------------------------|
|--------------------------------------------------------------------|
|--------------------------------------------------------------------|

Make it real not fantasy 
Fantasy 
Make it real not fantasy 
Fantasy

Repeat Verse: 
Did you ever have a secret yearning     
Don't you know it could come true 
Now's the time to set wheels turning 
To open up your life for you  
As you know there's always good and evil 
Make your choice don't be blind 
Open up your mind and don't be trivial 
There's a whole new world to find  

Make it real not fantasy 
Fantasy 
Make it real not fantasy 
Fantasy oooh yeah  

Solo (Não consegui tirar)

2nd Verse:
 D5       Bb5       F5       G5
|-------------------------------------|
|-------------------------------------|
|7--------3---------------------------|
|-7--------3---------3--------5-------|
|--5--------1---------3--------5------|---
|----------------------1--------3-----|  |    Toca
                                         |    
Did you ever have a secret yearning      |    isso
                                         |      
Don't you know it could come true        |    até
                                         |
Now's the time to set wheels turning     |    aqui
                                         |
To open up your life for you ------------|

If you take life as a crazy gamble ------|
                                         |   Aqui
Throw your dice take your chance         |   faz
                                         |   igual
You will see if from a different angle   |   o 
                                         |   primeiro
And you too will join the dance|----------|   verso



Make it real not fantasy 

Fantasy 

Make it real not fantasy 

Fantasy  

Make it real not fantasy 

Fantasy 

Make it real not fantasy 

Fantasy oooh yeah



Legenda:
p.m. - Palm Mute
b - bend
br - bend e release
h - hammer on
x - note morta
Acordes para:
    Colaboração e revisão:
    • Leonardo Lamesa
    • Lucas

    0 comentários

      mostrar mais comentários

      Conseguiu tocar?

      2tocaram0ainda não

      Grave um vídeo tocando Make It Real e mande pra gente!

      00:00 / 00:00
      outros vídeos desta música
      repetirqualidadeautomática
      Outro vídeos desta música
        00:00 / 00:00
        automática
        OK