Enviar cifraEntrar

No One Like You

Scorpions

Cifra: Principal
exibições 110.835
Tom: C

  (A5 F5 G5 A5 F5 G5 A5 F5 G5 F5 G5 (2X))
E|15-----------------------------------------------------------------15------------------
B|----------------------------------------------------------------15b----(15)~~~~---------
G|----14--16--16b-r-14/12--14p12--------------14-16-16br-14s12----------------------------
D|--------------------------------14~~~~~-------------------------------------------------
A|----------------------------------------------------------------------------------------
E|----------------------------------------------------------------------------------------


E|---------------17---------20---20b~~~---17---20---19p17---19p17--------17---------------
B|------17--20b------20p17------------------------------------------20b~~~----------------
G|-/17------------------------------------------------------------------------------------
D|----------------------------------------------------------------------------------------
A|----------------------------------------------------------------------------------------
E|----------------------------------------------------------------------------------------


E|----------------------------------------------------------------------------------------
B|----------------------------------------------------------------------------------------
G|---19---17--------19b~------------------------------------------------------------------
D|-------------19-------------------------------------------------------------------------
A|----------------------------------------------------------------------------------------
E|----------------------------------------------------------------------------------------


E15b-----------------------------------------------------------------15------------------
B|----------------------------------------------------------------15b----(15)~~~~---------
G|----14--16--16b-r-14/16--14p12--------------14-16-16br-14s12----------------------------
D|--------------------------------14~~~~~-------------------------------------------------
A|----------------------------------------------------------------------------------------
E|----------------------------------------------------------------------------------------


E|---------------17---------20b---20~~~---17---20p19p17---19p17------17-------------------
B|------17--20b------20p17---------------------------------------20b------20p17------17---
G|-/17---------------------------------------------------------------------------19-------
D|----------------------------------------------------------------------------------------
A|----------------------------------------------------------------------------------------
E|----------------------------------------------------------------------------------------


E|--17------------------------------------------------------------------------------------
B|------20--19p17-------------------------------------17~~~~~~----------------------------
G|------------------19b-r--(19)p17------19-----17-----------------------------------------
D|----------------------------------------------------------------------------------------
A|----------------------------------------------------------------------------------------
E|----------------------------------------------------------------------------------------


Girl, Its been a long time that we've been apart, much to long for a man who needs love.

E|-----------0-------------------------------------------------------0-----------------------0-----
B|--------------1---------------1----------------------------------------1-------------------------
G|--------2--------2--------2-----------------------------------2------------2-----------2---------
D|-----2-------------0---3----------3----2---0---------------2------------------0----3-------------
A|--0---------------------------------------------3-------0---------------------------------------
E|-------------------------------------------------------------------------------------------------


I've missed you since I've been away........

E|-----------0--------------------------------------------------------0---------------0-----------0--
B|--------------1---------------1----------------------------------------1-----------------3---------
G|--------2--------2--------2------------------------------------0----------0-----------4-----4------
D|-----2-------------0---3--------3----2---0---------------2------------------0---2------------------
A|--0---------------------------------------------2--3-----------------------------------------------
E|---------------------------------------------------------------------------------------------------


E|---------------------------------------------------------------------------------------
B|---------------------------------------------------------------------------------------
G|---2--2---------------------2--2--------------------2--2-------------------------------
D|---2--2-----3--3----5--5----2--2----3--3----5--5----2--2---3--3---5--5---3------2------
A|---0--0-----3--3----5--5----0--0----3--3----5--5----0--0---3--3---5--5---3------2------
E|------------1--1----3--3------------1--1----3--3-----------1--1---3--3---1------0------


Solo:

E|----------------------------------------------------------------------------------------------
B|-------------------------------(semi harmonic)------------------------------------8b~~~~~~~---
G|---7(b-hold)------7-7-7-7-7-7-7-7-7-7-7-7(r)----(7b1/2) (7r) p5 -7--5-----------------------
D|---------------------------------------------------------------------------------------------
A|---------------------------------------------------------------------------------------------
E|---------------------------------------------------------------------------------------------


E|----------------------------------------------------------------------------5-----------------
B|---------------------------------------------13b------------------------5-------8p5-----------
G|---------14b-----(14r) p12----------14----------------------7---(7b)---------------8-7p5-----
D(0)*-----------------------------14--------------------------------------------------------7--
A|----------------------------------------------------------------------------------------------
E|----------------------------------------------------------------------------------------------


E|-------------------------------------------------------------------------
B|-------------------------------------------------------------------------
G|--7p5--------------------------------------------------------------------
D|--------7p5--7---7p5-----------------------------------------------------
A|---------------------------7-6-5-3--------3b(slow)-----------------------
E|-------------------------------------------------------------------------


E|--17/20~~~~~~~----17-19-19b--17----------17----19/22b------------------17-------17-------
B|-----------------------------------20-------------------------------17-----20b------20b--
G|-----------------------------------------------------------(10) /17----------------------
D|-----------------------------------------------------------------------------------------
A|-----------------------------------------------------------------------------------------
E|-----------------------------------------------------------------------------------------


E|--17----------17----------17---------17---------17-----------17-20b--17--------17-20b--17-----17-
B|-------20b----------20b-------20b--------20b-------20b----------------------20b-----------20b----
G|-------------------------------------------------------------------------------------------------
D|-------------------------------------------------------------------------------------------------
A|-------------------------------------------------------------------------------------------------
E|-------------------------------------------------------------------------------------------------


E|-------------------------------------------------------------------------------------------------
B|-20b(hold)---20---20---20r-----20-20-20p17--------------17-h-20-p-17----------17-h-19-p-17-------
G|-----------------------------------------------------------------------19--------------------19--
D|-------------------------------------------------------------------------------------------------
A|-------------------------------------------------------------------------------------------------
E|-------------------------------------------------------------------------------------------------


E|------------------------------------------------------------------------------------------
B|-------------17-h-20-p-17----------17-h-20-p-17------------17--20-p-17----20b-------------
G|-------19--------------------20---------------------19------------------------------------
D|------------------------------------------------------------------------------------------
A|------------------------------------------------------------------------------------------
E|------------------------------------------------------------------------------------------


E|----17------------------------------------------------------------------------------
B|----------20-p-17---------17--------------------------------------------------------
G|--------------------20--------20-19--17---------------------------------------------
D|-------------------------------------------19--17-----------------------------------
A|----------------------------------------------------19-18-17-15b(hold)------15(r)---
E|------------------------------------------------------------------------------------
  • 1
  • 2
  • 3
  • 4
  • 5
  • 6
  • 7
  • 8
  • 9
  • 10
  • 11
  • 12
    Acordes para:

      0 comentários

        mostrar mais comentários

        Conseguiu tocar?

        17tocaram2ainda não

        Grave um vídeo tocando No One Like You e mande pra gente!

        00:00 / 00:00
        outros vídeos desta música
        repetirqualidadeautomática
        • automática
        Outro vídeos desta música
          00:00 / 00:00
          automática
          • automática
          1 versão de Tab de baixoexibiçõescontribuições
          1 versão de Tab de bateriaexibiçõescontribuições
          2 versões de Guitar Proformatodownloadscontribuição
          fecharplay/pause subir/descer velocidade
            acordes
            fechar
            OK
            Feedback