Cifra Club

Under The Same Sun

Scorpions

Cifra: Versão 2 (violão e guitarra)
tom: D
[ Versão Acústica ]

Nota: Scorpions toca com seus intrumentos afinados meio tom abaixo, ou seja, D#,G#,C#,F#,A#,d#.


Intro (Mathias): 
Riff a1
        d#|----------------------------------------------------- 
        a#|----------------------------------------------------- 
        f#|-----------------0----------------------------------- 
        C#|---0----0----0--------------------------------------- 
        G#|-2-2--3-3--5-5-------------------------------------- 
        D#|-2----3----5----------------------------------------- 
          *(F#m) (G)  (A)
riff a2
        d#|----------------------------------------------------- 
        a#|----------------------------------------------------- 
        f#|-----------------0----------------------------------- 
        C#|---0----0----0-----4-2h4-0--------------------------- 
        G#|-2-2--3-3--5-5-------------------------------------- 
        D#|-2----3----5----------------------------------------- 
    
intro: riff a1  riff a2  - repet o riff a2 e junto o riff b1 
    
h=hammer on
    
riff b1 (Ruldof): 
        d#|------------------------------------------
        a#|------------------------------------------
        f#|--7--9-12-11-9-9p11---14-12-11-9-7p9------
        C#|------------------------------------------
        G#|----------------------------------------- 
        D#|-----------------------------------------
    
p=pull off
    
letra: 
    
*F#m          G                                  
I saw the morning                               
          A
it was shattered by a gun
           F#m              G            A
heard the scream, saw him fall no one cried
F#m         G
I saw a mother
           A
she was praying for her son
           F#m             G                 A
bring him back, let him live don't let him die
    
Em          A
do you ever asked yourself
             F#m            Bm
is there a heaven in the sky....
     Em7               A
why can't we get it right?
    
          D                       F#m
'cause we all live under the same sun
   D                        F#m
we all walk under the same moon (yeah!)
     Bm  Gm               D            A
then why? why? , can't we live as one?
    
F#m         G
I saw the evening
          A
fading shadows one by one
                F#m           G         A
we watched the lamb lay down to the sacrifice
F#m           G
I saw the children
      A
the children of the sun
          F#m             G            A
how they wept, how they bled how they died
    
Em           A
do you ever asked yourself
             F#m         Bm
is there a heaven in the sky....
      Em7                A
why can't we stop the fight
    
           D                      F#m
'cause we all live under the same sun
   D                    F#m
we all walk under the same moon (yeah!)
     Bm    Gm             D           A
then why? why? ,can't we live as one?
    
BRIDGE:
    
   Bm                       G
Sometimes I think I'm going mad
                      A#
we are losing all we had
    C              D
and no one seem to care, yeah!
    Bm                      G 
But in my heart it doesn't change
                 A#
we've got to rearrange
        C                  D
and bring our world some love, yeah!, yeah!
    
SOLO: Bm G A# C D (x2 vezes)(improvizado em pentatonica de 'Bm' fica mt legal)
    
     Em              A
And does it really matter?
              F#m        Bm
if there's a heaven up above
      Em7                  A 
we should could use some love
    
          D                       F#m
'cause we all live under the same sky
   D                        F#m
we all look up at the same stars (yeah!)
     Bm    Gm                     D      A
then why? why? , can't we live as one? (hey!)
    
          D                       F#m
'cause we all live under the same sun
   D                       F#m
we all walk under the same moon (yeah!)
   D                       F#m
we all live under the same sky
   D                        F#m
we all look up at the same stars (yeah!)
     Bm            Gm               D     
then why? tell me why? , can't we live as one?
00:00 / 00:00
Outros vídeos desta música
Repetir
Outros vídeos desta música
Composição de Bruce Fairbairn / Klaus Meine / Rudolf Schenker
Colaboração e revisão:
  • Cassius Reolon
8.387 exibições
    • ½ Tom
    • A
    • Bb
    • B
    • C
    • Db
    • D
    • Eb
    • E
    • F
    • F#
    • G
    • Ab
  • Adicionar à lista

    0 comentários

    Ver todos os comentários

    Conseguiu tocar?

    0 Tocaram 0 Ainda não

    Grave um vídeo tocando Under The Same Sun e nos envie!

    00:00 / 00:00

    Cifra Club Pro

    Aproveite o Cifra Club com benefícios exclusivos e sem anúncios
    Cifra Club Pro
    Aproveite o Cifra Club com benefícios exclusivos e sem anúncios
    OK