Enviar cifraEntrar

Quase de Manhã

Scracho

Cifra: Principal
exibições 443.024
Tom: A
(intro)


E |--------------------------------------------------------------------------------------------------|
B |--------------------------------------------------------------------------------------------------|
G |--------------------------------------------------------------------------------------------------|
D |--------------------------------------------------------------------------------------------------|
A |--------7-5-4--------4-5-2--------4-2-0-2-0~---------7-5-4---------4-5-2--------4-2-0-2-0-0-2-0---|
E |-5-5-5--------5-5-5--------5-5-5---------------5-5-5---------5-5-5---------5-5-5------------------|


        A                E
É quase de manhã e ainda não dormi
            F#m             D
Fiquei lembrando seu olhar
            A                       E
Se a gente não der certo eu não to nem aí
       F#m              D
Ainda vou poder sonhar

       F#m
Com você
        D            A                 E
Não importa, se ninguém souber o que aconteceu.
        F#m            D       A                E
Tanto faz, o que importa é saber que o seu sorriso é meu

A        E                   F#m
Faz um tempo quero te encontrar
          D             A
Falta coragem pra chegar
         E            F#m
Mas hoje eu já decidi
            D
Eu quero ter você pra mim


E |----------------------------------|
B |----------------------------------|
G |-------------6--------------------|
D |-------7/9/7--9---7/9/7-7---------|
A |------7---------------------------|
E |-----5----------5-----------------|


A                     E
Me dói te ver assim por ele
         F#m         D
Que não soube te amar
A                      E
E eu só queria te dizer
       F#m             D
Tenho tanto pra te dar

       F#m          D
E eu sei, não importa
       A                   E
Se ninguém souber o que aconteceu
       F#m            D
Tanto faz, o que importa
    A                E
É saber que o seu sorriso é meu

(refrão)
A       E                    F#m
Faz um tempo quero te encontrar
          D             A
Falta coragem pra chegar
         E                    F#m
Mas hoje eu já decidi
         D
Eu quero ter você pra mim

(solo) F#m D A E
(refrão 2x)
  • 1
  • 2
  • 3
  • 4
  • 5
  • 6
  • 7
  • 8
  • 9
  • 10
  • 11
  • 12
    Acordes para:
      Colaboração e revisão:

      0 comentários

        mostrar mais comentários

        Conseguiu tocar?

        92tocaram0ainda não

        Grave um vídeo tocando Quase de Manhã e mande pra gente!

        00:00 / 00:00
        outros vídeos desta música
        repetirqualidadeautomática
        • automática
        Outro vídeos desta música
          00:00 / 00:00
          automática
          • automática
          Acordes para:violão e guitarra
          dificuldadeexibiçõescontribuições
          1 versão de Tab de gaitaexibiçõescontribuições
          fecharplay/pause subir/descer velocidade
            acordes
            fechar
            OK
            Feedback