Cifra Club

Aprenda

Antilyrical

Seaweed

Cifra: Principal (violão e guitarra)
tom: B
(intro)

(riff 1)

D|--9--------------------------------------|
A|-----------------------------------------|
E|-----------------------------------------|

( B   F#/G  F#/E   D )
Bad news comes by the ton
Easy answers are none
That i know
No easy answers and only scars to show
Take me off to the grid
You make me feel like a kid
That i know
No easy answers and only scars to show

(riff 2)
E|----------------------------------------|
B|----------------------------------------|
G|-444-141414-111111..--------------------|
D|-XXX-XXXXXX-X-X-X...--------------------|
A|-222-121212-9-9-9...--------------------|
E|----------------------------------------|

(riff 2 - 3x)
Another new day's gone
And time goes on and ons
The road ahead seems long

(riff 3)
             (2x)
E|--------------|-----------|
B|--------------|-----------|
G|-----12121212-|-----------|
D|-777-XXXXXXXX-|--555------|
A|-777-10101010-|--555------|
E|-555----------|--333------|

(riff 3)
Under darkened skies
Where everybody dies

( B   F#/G  F#/E   D )
Needle stis at the red
Pounding feet full of lead
That i know
No easy answers and only scars to show
Meeting my wants and demands
Money falls through your hands
That i know
No easy answers and only scars to show

(riff 2 - 3x)
Another new day's gone
And time goes on and ons
The road ahead seems long

(riff 3)
Under darkened skies
Where everybody dies

( B F E ) (2x)

And no one knows when it's ending

( B   F#/G  F#/E   D )
Bad news comes by the ton
Easy answers are none
That i know
No easy answers and only scars to show

(riff 4)
E|--------------------|
B|--------------------|
G|-4-14-11------------|
D|-X-XX-X---5-7-9-----|
A|-2-12-9---5-7-9-----|
E|----------3-5-7-----|
Composição de Seaweed
Colaboração e revisão:
  • Werlis Junior
304 exibições
    • ½ Tom
    • A
    • Bb
    • B
    • C
    • Db
    • D
    • Eb
    • E
    • F
    • F#
    • G
    • Ab
  • Adicionar à lista

    0 comentários

    Ver todos os comentários

    Conseguiu tocar?

    0 Tocaram 0 Ainda não

    Grave um vídeo tocando Antilyrical e nos envie!

    00:00 / 00:00
    Outros vídeos desta música
    Repetir Qualidade Automático
    Outros vídeos desta música
    00:00 / 00:00
    Automático

    Cifra Club Pro

    Aproveite o Cifra Club com benefícios exclusivos e sem anúncios
    Cifra Club Pro
    Aproveite o Cifra Club com benefícios exclusivos e sem anúncios
    OK