Cifra Club

Aprenda

Card Tricks

Seaweed

Cifra: Principal (violão e guitarra)
tom: G
Intro
Guitar1
         D       A#   B
    E|--------------------------|
    B|----mm-m-m---mmmm-mmmm----|
    G|---77777777--3333-4444----|   4x
    D|---77777777--3333-4444----|
    A|---55555555--1111-2222----|
    E|--------------------------|

Verse
Guitar1
         D       A#     C
    E|--------------------------|
    B|--------------------------|
    G|---77777777--3333-5555----|   4x
    D|---77777777--3333-5555----|
    A|---55555555--1111-3333----|
    E|--------------------------|

Guitar2
         D         A#   C
    E|--------------------------|
    B|--------------------------|
    G|---77777777--3333-5555----|   4x
    D|---xxxxxxxx--3333-xxxx----|
    A|---55555555--1111-3333----|
    E|--------------------------|

Refrão
Guitar1&2
         E   F# G  D      G  G
    E|--------------------------|
    B|--------------------------|
    G|---999-11-12-77-----------|   2x
    D|---999-11-12-77-3x--5--5--|
    A|---777-9--10-55-----5--5--|
    E|---000--------------3--3--|


Verso

Guitar1
         D       A#   B
    E|--------------------------|
    B|--------------------------|
    G|---77777777--3333-5555----|   4x
    D|---77777777--3333-5555----|
    A|---55555555--1111-3333----|
    E|--------------------------|

Guitar2
         D       A#   B
    E|--------------------------|
    B|--------------------------|
    G|---77777777--3333-5555----|   4x
    D|---xxxxxxxx--3333-xxxx----|
    A|---55555555--1111-3333----|
    E|--------------------------|


Refrão
Guitar1&2
         E   F# G  D      G  G B
    E|-----------------------------|
    B|-----------------------------|
    G|---999-11-12-77----------mmm-|   2x
    D|---999-11-12-77-3x--5--5-444-|
    A|---777-9--10-55-----5--5-444-|
    E|---000--------------3--3-222-|

Intro
Guitar1
         D       A#   B
    E|--------------------------|
    B|----mm-m-m---mmmm-mmmm----|
    G|---77777777--3333-4444----|   2x
    D|---77777777--3333-4444----|
    A|---55555555--1111-2222----|
    E|--------------------------|

Guitar1
         D       A#     C
    E|--------------------------|
    B|--------------------------|
    G|---77777777--3333-5555----|   4x
    D|---77777777--3333-5555----|
    A|---55555555--1111-3333----|
    E|--------------------------|

Guitar1
         D         F#      C
    E|-----------------------------|    |------------------------|
    B|-----------------------------|    |------------------------|
    G|---77777777--101010--5555----|    |-77777777--121212121212-|
    D|---xxxxxxxx--xxxxxx--xxxx----| 2x |-xxxxxxxx--xxxxxxxxxxxx-| 2x
    A|---55555555--8-8-8---3333----|    |-55555555--101010101010-|
    E|-----------------------------|    |------------------------|


Refrão
Guitar1&2
         E   F# G  D      G  G 
    E|--------------------------|      |----------|
    B|--------------------------|      |----------|
    G|---999-11-12-77-----------|   2x |----------|
    D|---999-11-12-77-3x--5--5--|      |-5--5--3--|
    A|---777-9--10-55-----5--5--|      |-5--5--3--|
    E|---000--------------3--3--|      |-3--3--1--|

Composição de Gary Maragos / Seaweed
Colaboração e revisão:
  • Werlis Junior
257 exibições
    • ½ Tom
    • A
    • Bb
    • B
    • C
    • Db
    • D
    • Eb
    • E
    • F
    • F#
    • G
    • Ab
  • Adicionar à lista

    0 comentários

    Ver todos os comentários

    Conseguiu tocar?

    0 Tocaram 0 Ainda não

    Grave um vídeo tocando Card Tricks e nos envie!

    00:00 / 00:00
    Outros vídeos desta música
    Repetir Qualidade Automático
    Outros vídeos desta música
    00:00 / 00:00
    Automático

    Cifra Club Pro

    Aproveite o Cifra Club com benefícios exclusivos e sem anúncios
    Cifra Club Pro
    Aproveite o Cifra Club com benefícios exclusivos e sem anúncios
    OK