Cifra Club

Careful

Sebadoh

Cifra: Principal (violão e guitarra)
Selo Cifra Club: esta cifra foi revisada para atender aos critérios oficiais da nossa Equipe de Qualidade.
tom: E
[Intro]
E|--0-----0-----0--0-------|-------------------------|--0-----0-----0--0-------|--------0-----------------|
B|--0-----0-----0--0-------|-------------------------|--6-----6-----6--6-------|--------0-----------------|
G|--9-----9-----9--9--x-10-|----10-10-10-10-10-10-10-|--7-----7-----7--7--x-10-|----10-10-------10-10-10--|
D|--9-----9-----9--9--x-10-|----10-10-10-10-10-10-10-|--7-----7-----7--7--x-10-|----10-10-------10-10-10--|
A|--7-----7-----7--7--x--8-|-----8--8--8--8--8--8--8-|--5-----5-----5--5--x--8-|-----8--8--------8--8--8--|
E|-------------------------|-------------------------|-------------------------|--------------------------|


E|-------------------------|-------------------------|-------------------------|--------------------------|
B|-------------------------|-------------------------|-10----10-----8--------8-|--------------------------|
G|--9-----7--------------9-|-----9--7--------7--7--7-|--------------------9----|----10-10-------10-10-10--|
D|--------------5-/7-------|-------------------------|-------------------------|--------------------------|
A|-------------------------|-------------------------|-------------------------|--------------------------|
E|-------------------------|-------------------------|-------------------------|--------------------------|


[Verse 1 - 0:13]                                                                                            3x
e||---0-----0-----0--0-----0-|-----0--0--------0--0--0-|-----------------------0-|-----0--0--------0--0--0--||
B||o--1-----1-----1--1--x--1-|-----1--0--------0--0--0-|--3-----3-----3--3--x--1-|-----1--0--------0--0--0-o||
G||---2-----2-----2--2--x--2-|-----2--2--------2--2--2-|--2-----2-----2--2--x--2-|-----2--2--------2--2--2--||
D||---2-----2-----2--2--x--3-|-----3--3--------3--3--3-|--0-----0-----0--0--x--3-|-----3--3--------3--3--3--||
A||o--0-----0-----0--0-------|-------------------------|-------------------------|-------------------------o||
E||--------------------------|-------------------------|-------------------------|--------------------------||


[Prechorus 1 - 0:33]
E|--0-----0-----0--0-------|-------------------------|--0-----0-----0--0-------|--------0-----------------|
B|--0-----0-----0--0-------|-------------------------|--6-----6-----6--6-------|--------0-----------------|
G|--9-----9-----9--9--x-10-|----10-10-10-10-10-10-10-|--7-----7-----7--7--x-10-|----10-10-------10-10-10--|
D|--9-----9-----9--9--x-10-|----10-10-10-10-10-10-10-|--7-----7-----7--7--x-10-|----10-10-------10-10-10--|
A|--7-----7-----7--7--x--8-|-----8--8--8--8--8--8--8-|--5-----5-----5--5--x--8-|-----8--8--------8--8--8--|
E|-------------------------|-------------------------|-------------------------|--------------------------|


E|-------------------------|-------------------------|-------------------------|--------------------------|
B|-------------------------|-------------------------|-10----10-----8--------8-|--------------------------|
G|--9-----7--------------9-|-----9--7--------7--7--7-|--------------------9----|----10-10-------10-10-10--|
D|--------------5-/7-------|-------------------------|-------------------------|--------------------------|
A|-------------------------|-------------------------|-------------------------|--------------------------|
E|-------------------------|-------------------------|-------------------------|--------------------------|


[Verse 2 - 0:47]                                                                                            4x
e||---0-----0-----0--0-----0-|-----0--0--------0--0--0-|-----------------------0-|-----0--0--------0--0--0--||
B||o--1-----1-----1--1--x--1-|-----1--0--------0--0--0-|--3-----3-----3--3--x--1-|-----1--0--------0--0--0-o||
G||---2-----2-----2--2--x--2-|-----2--2--------2--2--2-|--2-----2-----2--2--x--2-|-----2--2--------2--2--2--||
D||---2-----2-----2--2--x--3-|-----3--3--------3--3--3-|--0-----0-----0--0--x--3-|-----3--3--------3--3--3--||
A||o--0-----0-----0--0-------|-------------------------|-------------------------|-------------------------o||
E||--------------------------|-------------------------|-------------------------|--------------------------||


[Prechorus 2 - 1:15]
E|--0-----0-----0--0-------|-------------------------|--0-----0-----0--0-------|--------0-----------------|
B|--0-----0-----0--0-------|-------------------------|--6-----6-----6--6-------|--------0-----------------|
G|--9-----9-----9--9--x-10-|----10-10-10-10-10-10-10-|--7-----7-----7--7--x-10-|----10-10-------10-10-10--|
D|--9-----9-----9--9--x-10-|----10-10-10-10-10-10-10-|--7-----7-----7--7--x-10-|----10-10-------10-10-10--|
A|--7-----7-----7--7--x--8-|-----8--8--8--8--8--8--8-|--5-----5-----5--5--x--8-|-----8--8--------8--8--8--|
E|-------------------------|-------------------------|-------------------------|--------------------------|

                                                                                                            2x
eb||-------------------------|-------------------------|-------------------------|--------------------------||
Bb||o------------------------|-------------------------|-10----10-----8--------8-|-------------------------o||
Gb||--9-----7--------------9-|-----9--7--------7--7--7-|--------------------9----|----10-10-------10-10-10--||
Db||--------------5-/7-------|-------------------------|-------------------------|--------------------------||
Ab||o------------------------|-------------------------|-------------------------|-------------------------o||
Eb||-------------------------|-------------------------|-------------------------|--------------------------||


[Verse 3 - 1:35]                                                                                            4x
e||---0-----0-----0--0-----0-|-----0--0--------0--0--0-|-----------------------0-|-----0--0--------0--0--0--||
B||o--1-----1-----1--1--x--1-|-----1--0--------0--0--0-|--3-----3-----3--3--x--1-|-----1--0--------0--0--0-o||
G||---2-----2-----2--2--x--2-|-----2--2--------2--2--2-|--2-----2-----2--2--x--2-|-----2--2--------2--2--2--||
D||---2-----2-----2--2--x--3-|-----3--3--------3--3--3-|--0-----0-----0--0--x--3-|-----3--3--------3--3--3--||
A||o--0-----0-----0--0-------|-------------------------|-------------------------|-------------------------o||
E||--------------------------|-------------------------|-------------------------|--------------------------||


[Prechorus 3 - 2:02]
E|--0-----0-----0--0-------|-------------------------|--0-----0-----0--0-------|--------0-----------------|
B|--0-----0-----0--0-------|-------------------------|--6-----6-----6--6-------|--------0-----------------|
G|--9-----9-----9--9--x-10-|----10-10-10-10-10-10-10-|--7-----7-----7--7--x-10-|----10-10-------10-10-10--|
D|--9-----9-----9--9--x-10-|----10-10-10-10-10-10-10-|--7-----7-----7--7--x-10-|----10-10-------10-10-10--|
A|--7-----7-----7--7--x--8-|-----8--8--8--8--8--8--8-|--5-----5-----5--5--x--8-|-----8--8--------8--8--8--|
E|-------------------------|-------------------------|-------------------------|--------------------------|

                                                                                                            2x
eb||-------------------------|-------------------------|-------------------------|--------------------------||
Bb||o------------------------|-------------------------|-10----10-----8--------8-|-------------------------o||
Gb||--9-----7--------------9-|-----9--7--------7--7--7-|--------------------9----|----10-10-------10-10-10--||
Db||--------------5-/7-------|-------------------------|-------------------------|--------------------------||
Ab||o------------------------|-------------------------|-------------------------|-------------------------o||
Eb||-------------------------|-------------------------|-------------------------|--------------------------||


[Chorus]                                                                                                    2x
e||---0--0--0--0--0--0-----0-|-----0--0--0--0--0--0--0-|-----------------------0-|-----0--0--0--0--0--0--0--||
B||o--1--1--1--1--1--1--x--1-|-----1--1--1--1--1--1--1-|--3--3--3--3--3--3--x--1-|-----1--1--1--1--1--1--1-o||
G||---2--2--2--2--2--2--x--2-|-----2--2--2--2--2--2--2-|--2--2--2--2--2--2--x--2-|-----2--2--2--2--2--2--2--||
D||---2--2--2--2--2--2--x--3-|-----3--3--3--3--3--3--3-|--0--0--0--0--0--0--x--3-|-----3--3--3--3--3--3--3--||
A||o--0--0--0--0--0--0-------|-------------------------|-------------------------|-------------------------o||
E||--------------------------|-------------------------|-------------------------|--------------------------||


[Coda]
E|---0----------------------|
B|---0----------------------|
G|---2----------------------|
D|---2----------------------|
A|---0----------------------|
E|--------------------------|
Outros vídeos desta música
    11 exibições
      • ½ Tom
      • A
      • Bb
      • B
      • C
      • Db
      • D
      • Eb
      • E
      • F
      • F#
      • G
      • Ab
    • Adicionar à lista

    Afinação da cifra

    Afinador online

      0 comentários

      Ver todos os comentários

      Conseguiu tocar?

      0Tocaram0Ainda não

      Grave um vídeo tocando Careful e nos envie!

      Toque também

      1. Imagem do artista PavementHarness Your Hopes Pavement
      2. Imagem do artista Guided By VoicesPlanet Score Guided By Voices
      3. Imagem do artista Folk ImplosionBella ciao Folk Implosion
      4. Imagem do artista SuperchunkCadmium Superchunk

      Entre para o Cifra Club PRO

      Tenha acesso a benefícios exclusivos no App e no Site

      • Chega de anúncios

      • Badges exclusivas

      • Mais recursos no app do Afinador

      • Atendimento Prioritário

      • Aumente seu limite de lista

      • Ajude a produzir mais conteúdo

      Cifra Club Pro

      Aproveite o Cifra Club com benefícios exclusivos e sem anúncios
      Cifra Club Pro
      Aproveite o Cifra Club com benefícios exclusivos e sem anúncios
      Ops (: Contenido disponible sólo en portugués.
      OK