Cifra Club

Careless Whisper

Seether

Cifra: Principal (violão e guitarra)
tom: F
INTRO 2x:

E|------10b12r10-------------10b12r10-------------8-------------8-----------------|
B|---------------10-------------------10-----------11-------------11--------------|
G|-----------------10-------------------10-----------10-------------10~~----------|
D|-----------------------------------------------------12-------------------------|
A|--------------------------------------------------------------------------------|
E|--------------------------------------------------------------------------------|

E|----------------------------------------------------------------------|
B|----11--10---------------------------------------------------------10-|
G|-----------10-------------------------------------------9--10--12-----|
D|------------------12\8~~~~~~~------------------10--12-----------------|
A|-----------------------------------------12-13------------------------|
E|----------------------------------------------------------------------|

VERSO 1:

Dm            Gm
I feel so unsure
     Bb
As I take your hand
             Am
And lead you to the dance floor
  Dm
  As the music dies     D|--0--0--3--5/7~~~~---|
Gm
  Something in your eyes
Bb
Calls to mind a silver screen
    Am
And all its sad goodbyes

REFRÃO:
D5
  I'm never gonna dance again
      G5
These guilty feet have got no rhythm
Bb5
  Though it's easy to pretend
  A5
I know you're not a fool
  D5
I should've known better than to cheat a friend
    G5
And waste the chance that I'd been given
Bb5
  So I'm never gonna dance again
    A5
The way I danced with you

   Ohh-ohh


VERSO 2:

Dm                Gm
Time can never mend
    Bb
The careless whispers
Am
Of a good friend
  Dm
  To the heart and mind         D|--0--0--3--5/7~~~~---|
Gm
  Ignorance is kind
Bb
There's no comfort in the truth
Am
Pain is all you'll find.


(REFRÃO)

(intro)   Ohh-ohh

PONTE:

  D5
Tonight the music seems so loud
  G5
I wish that we could lose this crowd
Bb5
Maybe it's better this way
     A5
We'd hurt each other with the things we'd wanna say
   D5
We could have been so good together
   G5
We could have lived this dance forever
    Bb5
But now who's gonna dance with me?
A5        D5
   Please stay!

(REFRÃO)

(intro) Ohh-Ohh

E|--------------------------------------------------------------------------|
B|---------------------10-11-13-13b-----------------------------------------|
G|--------------9-10-12-----------------------------------------------------|
D|--------7-8-10------------------------------------------------------------|
A|--7-8-10------------------------------------------------------------------|
E|--------------------------------------------------------------------------|

     2x                                                     |Apenas na 1ª vez
E|----------------------------------------------------------|---------------|
B|----------------------------------------------------------|---------------|
G|-7/9\7--7/9\7---7/9\7--7/9/10-10--7/9\7--7/9\7-6---14--12-|-10--7---------|
D|----------------------------------------------------------|---------------|
A|-5/7\5--5/7\5---5/7\5--5/7/8--8---5/7\5--5/7\5-4---12--10-|-8---5---------|
E|----------------------------------------------------------|---------------|
00:00 / 00:00
Outros vídeos desta música
Repetir
Outros vídeos desta música
Composição de George Michael
Colaboração e revisão:
  • Yan Oliveira
  • Bruno Lopes
51.357 exibições
    • ½ Tom
    • A
    • Bb
    • B
    • C
    • Db
    • D
    • Eb
    • E
    • F
    • F#
    • G
    • Ab
  • Adicionar à lista

    0 comentários

    Ver todos os comentários

    Entre para oCifra Club PRO

    Tenha acesso a benefícios exclusivos no App e no Site

    • Chega de anúncios

    • Prioridade de compra em lançamentos

    • Mais recursos no app do Afinador

    • Atendimento Prioritário

    • Descontos nos produtos Cifra Club

    • Ajude a produzir mais conteúdo

    00:00 / 00:00

    Cifra Club Pro

    Aproveite o Cifra Club com benefícios exclusivos e sem anúncios
    Cifra Club Pro
    Aproveite o Cifra Club com benefícios exclusivos e sem anúncios
    OK