Cifra Club

Driven under

Seether

Cifra: Principal (violão e guitarra)
tom: F
[Riff 1]

E||----------------------------------|----------------------------------|
B||----------------------------------|----------------------------------|
G||------9-----9-----9-----9-----9---|------9-----9-----9-7---9-7---9---|
D||----7-----7-----7-----7-----7-----|----7-----7-----7---------------2x- 
A||--8-----8-----8-----8-----8-----0-|--7-----7-----7-------7-----7---|
E||----------------------------------|----------------------------------|


[Riff 2]

E|----------------------------------| ----------------------------------|
B|----------------------------------| ----------------------------------|
G|------9-----9-----9-----9-----9---| ------9-----9-----9-----9-----9---|
D|----7-----7-----7-----7-----7-----| ----7-----7-----7-----7-----7-----|
A|--8-----8-----8-----8-----8-----0-| --7-----7-----7-----7-----7-----0-|
E|----------------------------------| ----------------------------------|

E|----------------------------------| ----------------------------------|
B|----------------------------------| ----------------------------------|
G|------9-----9-----9-----9-----9---| ------9-----9-----9-----9---------|
D|----7-----7-----7-----7-----7-----| ----7-----7-----7-----7---x-x-x-x-|
A|--8-----8-----8-----8-----8-------| --7-----7-----7-----7-----x-x-x-x-|
E|--------------------------------0-| --------------------------x-x-x-x-|


[Refrão]

E|-----------------(0)-|
B|-----------------(0)-|
G|---------------------|
D|--3----7---3---2-----| (X2)
A|--3----7---3---2-----|
E|--1----5---1---0-----|

E||----------------------------------|----------------------------------|
B||----------------------------------|----------------------------------|
G||------9-----9-----9-----9-----9---|------9-----9-----9-7---9-7---9---|
D||----7-----7-----7-----7-----7-----|----7-----7-----7---------------2x- 
A||--8-----8-----8-----8-----8-----0-|--7-----7-----7-------7-----7---|
E||----------------------------------|----------------------------------|

[Riff 4]

E|-----------------------------|
B|-----------------------------|
G|--9--xx--9--xx--9--xx--9--xx-|
D|--7--xx--7--xx--7--xx--7--xx-|
A|--8--xx--7--xx--8--xx--7--xx-|
E|-----------------------------|

[Riff 5]

E|-----------------------------------------------------------|
B|-----------------------------------------------------------|
G|--7-7-7-7-7--------------------5-5-5-5-5-------------------|
D|--7-7-7-7-7------3-3-3-3-3-----5-5-5-5-5-----5------53-3-3-| (3x)
A|--5-5-5-5-5--x-0-3-3-3-3-3-x-0-3-3-3-3-3-x-0-5------53-3-3-|
E|--5-5-5-5-5--x-0-1-1-1-1-1-x-0-3-3-3-3-3-x-0-3-3-3--31-1-1-|

E|----------------------------|
B|----------------------------|
G|----------------------------|
D|------------------------xxx-|
A|------------------------xxx-|
E|--1~--1/--5--5/--1------xxx-|

[solo]

E|-------------------------------------|
B|-------------------------------------|
G|-------------------------------------|
D|-10-9-107--14-12-17-147--------------|
A|-------------------------------------|
E|-------------------------------------|

F
 Do you think i’m faking
Am
 When i’m lying next to you?
F
 Do you think that i am blind
Am
 Nothing left for me to lose?
F                   
 Must be something on your mind
Am
 Something lost and left behind
F                           Am
 Do you know i’m faking now?

F
 Do you know i’m faking
Am
 When i’m lying next to you?
F
 Do you know that i am blind
Am
 To everything you ever do?
F
 Must be something on your mind
Am
 Something lost for me to find
F                      Am
 Do you know i’m faking?

F                            Am
  Then she told me she had a gun
                        F               E
  It sounded like she’d used it once before on him
F                            Am
  Then she told me she had a gun
                        F               E
  It sounded like she’d used it once before, oh man

F
 I guess you know i’m faking
Am
 When i tell you i love you
F
 I guess you know that i am blind
Am
 To everything you say and do
F
 Must be something on my mind
Am
 There’s nothing left for me to hide
F                       Am
 Do you know i’m faking?

F                            Am
  Then she told me she had a gun
                        F               E
  It sounded like she’d used it once before on him
F                            Am
  Then she told me she had a gun
                        F               E
  It sounded like she’d used it once before, oh man

Dm           F          C               G       
   We have to succumb to the feelings we can never face
Dm            F          C
   I need you. i breathe you
               G
   I can’t go through this all again.
Dm           F         C               G
   We have to succumb to the feelings we can never face
Dm            F          C
   I need you. i breathe you
               G
   I can’t go through this…

F                           Am
 Then she told me she had a gun
                       F                                                  
 It sounded like she’d used it once before

F                            Am
  Then she told me she had a gun
                        F               E
  It sounded like she’d used it once before on him
F                            Am
  Then she told me she had a gun
                        F               E
  It sounded like she’d used it once before, oh man

F                           Am
 Then she told me she had a gun
                       F         E
 She says she wants to use it on me now…
00:00 / 00:00
Outros vídeos desta música
Repetir
Outros vídeos desta música
Composição de Dale Stewart / Shaun Morgan
Colaboração e revisão:
  • Danilo Norato
  • Daniel Ramza
  • michael campos
26.474 exibições
    • ½ Tom
    • A
    • Bb
    • B
    • C
    • Db
    • D
    • Eb
    • E
    • F
    • F#
    • G
    • Ab
  • Adicionar à lista

    0 comentários

    Ver todos os comentários

    Entre para oCifra Club PRO

    Tenha acesso a benefícios exclusivos no App e no Site

    • Chega de anúncios

    • Prioridade de compra em lançamentos

    • Mais recursos no app do Afinador

    • Atendimento Prioritário

    • Descontos nos produtos Cifra Club

    • Ajude a produzir mais conteúdo

    00:00 / 00:00

    Cifra Club Pro

    Aproveite o Cifra Club com benefícios exclusivos e sem anúncios
    Cifra Club Pro
    Aproveite o Cifra Club com benefícios exclusivos e sem anúncios
    OK