Cifra Club

Plastic Man

Seether

Cifra: Principal (violão e guitarra)
tom: B (forma dos acordes no tom de C) Afinação: Eb Ab Db Gb Bb Eb
[Introdução/Verso] 6x

E|-----------------------------------|
B|-----------------------------------|
G|--------10-9-------------12--------|
D|------7-------0-------10----10-----|
A|----8--------------10----------10--|
E|--0-------------10-----------------|

I am a plastic man
Wish I can be the one you could be proud of
I'm losing heart again
Wish I could show you what you think I'm made of

[Refrão 1]

E|-----------------------------|
B|-----------------------------|
G|------7-------------5--------|
D|----5---5---5-----3---3---3--|
A|--5-------5-----3-------3----|
E|--5-------------3------------|

E|---0-0-0-0--0--0--0---00-------|
B|---3-3-3-3-/10--10--10-10\-8---|
G|---2-2-2-2-/9--9--9---9\7------|
D|---0-0-0-0---------------------|
A|-------------------------------|
E|-------------------------------|

Someday I know I'll find my place

[Refrão 2]

E|-----------------------------|
B|-----------------------------|
G|------7-------------5--------|
D|----5---5---5-----3---3---3--|
A|--5-------5-----3-------3----|
E|--5-------------3------------|

E|---0-0-0-0---|
B|---3-3-3-3---|
G|---2-2-2-2---|
D|---0-0-0-0---|
A|---0-0-0-0---|
E|---0-0-0-0---|

Someday I know this pain will fade

[Introdução/Verso] 6x

I am a perfect sell
Just wrap me up with a bow and flowers
I will neglect to tell
I'll sell your story that we love each other

[Refrão 1] 3x 

Someday I know I'll find my place
Someday I know this pain will fade
Someday I know I'll find my place

[Refrão 2 ]

someday I'll sing my last refrain

[Ponte] 8x

E|--------0--------------0----------|
B|--------0--------------0----------|
G|------4---4----4-----4----4----4--|
D|----2-------2------2--------2-----|
A|--3--------------0----------------|
E|----------------------------------|

Why don't you let me be
And I'll pretend I'm well
Cause you're toot blind to see
And I'm too tired to tell
And in your apathy
Your head begins to swell
Another tragedy
But you're too cold to feel

[Refrão1] 3x

Someday I know I'll find my place
Someday I know this pain will fade
Someday I know I'll find my place 

[Refrão 2]

Someday I'll sing my last refrain
00:00 / 00:00
Outros vídeos desta música
Repetir
Outros vídeos desta música
Composição de Seether / Shaun Morgan
Colaboração e revisão:
  • Daniel Deoti
  • Jurandi Neto
5.590 exibições
    • ½ Tom
    • A
    • Bb
    • B
    • C
    • Db
    • D
    • Eb
    • E
    • F
    • F#
    • G
    • Ab
  • Adicionar à lista

    0 comentários

    Ver todos os comentários

    Entre para oCifra Club PRO

    Tenha acesso a benefícios exclusivos no App e no Site

    • Chega de anúncios

    • Prioridade de compra em lançamentos

    • Mais recursos no app do Afinador

    • Atendimento Prioritário

    • Descontos nos produtos Cifra Club

    • Ajude a produzir mais conteúdo

    00:00 / 00:00

    Cifra Club Pro

    Aproveite o Cifra Club com benefícios exclusivos e sem anúncios
    Cifra Club Pro
    Aproveite o Cifra Club com benefícios exclusivos e sem anúncios
    OK