Cifra Club

Remedy

Seether

Cifra: Principal (violão e guitarra)
tom: G
Essa música tem como afinação "Drop D" no qual afinamos a sexta corda em D (ré)

Shaun
|-----------------|
|-----------------|
|-----------------|
|-2-x-0h2-2-5-5-2-|
|-2-x-0h2-2-5-5-2-|
|-2-x-0h2-2-5-5-2-|

Part 2 (opening) Heavy Distortion
Shaun and Pat for 4 measures then Pat for 4 more

|-----------------|
|-----------------|
|-----------------|
|-2-x-0h2-2-5-5-2-|
|-2-x-0h2-2-5-5-2-|
|-2-x-0h2-2-5-5-2-|


Verse - Bunch of times (Clean)
Pat

|-----------------------------------|
|-----------------------------------|
|-----------------------------------|
|---2---0---2---5----2---0---2---2--|
|--2-2-0-0-2-2-5-5--2-2-0-0-2-2-2-2-|
|-2---0---2---5----2---0---2---2----|

Pre-Chorus - Heavy Distortion
"If you want me.."

|---------------|
|---------------|
|---------------|
|-7-7-7-7-3-3-3-|
|-7-7-7-7-3-3-3-|
|-7-7-7-7-3-3-3-|

Chorus - Heavy Distortion
"Frail, this skin is dry and pale..."

|-----------------|
|-----------------|
|-----------------|
|-2-x-0h2-2-5-5-2-|
|-2-x-0h2-2-5-5-2-|
|-2-x-0h2-2-5-5-2-|

Verse - Bunch of measures - Clean (Shaun comes in w/ distortion about half way through)

|-----------------------------------|
|-----------------------------------|
|-----------------------------------|
|---2---0---2---5----2---0---2---2--|
|--2-2-0-0-2-2-5-5--2-2-0-0-2-2-2-2-|
|-2---0---2---5----2---0---2---2----|


Pre-Chorus - Heavy Distortion
"If you want me.."

|---------------|
|---------------|
|---------------|
|-7-7-7-7-3-3-3-|
|-7-7-7-7-3-3-3-|
|-7-7-7-7-3-3-3-|

Chorus - Heavy Distortion
"Frail, this skin is dry and pale..."

|-----------------|
|-----------------|
|-----------------|
|-2-x-0h2-2-5-5-2-|
|-2-x-0h2-2-5-5-2-|
|-2-x-0h2-2-5-5-2-|

Bridge - Heavy Distortion
"Hold your eyes closed, take me in..."

|-----------------------------------|
|-----------------------------------|
|-5555-7777-9999-7777-5555-4444-2-2-|
|-5555-7777-9999-7777-5555-4444-2-2-|
|-3333-5555-7777-5555-3333-2222-0-0-|
|-----------------------------------|

|---------------------------------|
|---------------------------------|
|-5555-7777-9999-7777-555-777-9---|
|-5555-7777-9999-7777-555-777-9---|
|-3333-5555-7777-5555-333-555-7---|
|---------------------------------|

Clean chords right before semi solo 4x

|-----------------|
|-----------------|
|-----------------|
|-2-x-0h2-2-5-5-2-|
|-2-x-0h2-2-5-5-2-|
|-2-x-0h2-2-5-5-2-|

Backing the semi-solo (pat, heavy distortion)

|-----------------|
|-----------------|
|-----------------|
|-2-x-0h2-2-5-5-2-|
|-2-x-0h2-2-5-5-2-|
|-2-x-0h2-2-5-5-2-|

Chorus 2x

|-----------------|
|-----------------|
|-----------------|
|-2-x-0h2-2-5-5-2-|
|-2-x-0h2-2-5-5-2-|
|-2-x-0h2-2-5-5-2-|
00:00 / 00:00
Outros vídeos desta música
Repetir
Outros vídeos desta música
Composição de Seether / Shaun Morgan
Colaboração e revisão:
  • caique
  • Tatiana Catelan
23.481 exibições
    • ½ Tom
    • A
    • Bb
    • B
    • C
    • Db
    • D
    • Eb
    • E
    • F
    • F#
    • G
    • Ab
  • Adicionar à lista

    0 comentários

    Ver todos os comentários

    Entre para oCifra Club PRO

    Tenha acesso a benefícios exclusivos no App e no Site

    • Chega de anúncios

    • Prioridade de compra em lançamentos

    • Mais recursos no app do Afinador

    • Atendimento Prioritário

    • Descontos nos produtos Cifra Club

    • Ajude a produzir mais conteúdo

    00:00 / 00:00

    Cifra Club Pro

    Aproveite o Cifra Club com benefícios exclusivos e sem anúncios
    Cifra Club Pro
    Aproveite o Cifra Club com benefícios exclusivos e sem anúncios
    OK