Cifra Club

The Gift

Seether

Cifra: Principal (violão e guitarra)
tom: B
(Riff 1)

      G#m                 F#                 E
E|-----------------------------------------------------------|---------|
B|-----------------------------------------------------------|---------|
G|------------4~~----------------3~~-------------1---1-------|---------|
D|-----6~~-------6~~--------4~~-----4---------2~~-------4--2-|---4--2--|
A|--6~~--6~~-------6~~--4~~---4~~------4---2~~---------------|-2-------|
E|-----------------------------------------------------------|---------|

(Riff 2)

      G#m                 F#                 E
E|-----------------------------------------------------------|----|
B|-----------------------------------------------------------|-4--|
G|------------4~~----------------3~~-------------1---1-------|-4--|
D|-----6~~-------6~~--------4~~-----4---------2~~-------4--2-|----|
A|--6~~--6~~-------6~~--4~~---4~~------4---2~~---------------|----|
E|-----------------------------------------------------------|----|

(RIff 1)
(RIff 2)

RIff 1
Hold me now I need to feel relief
RIff 2
Like I never wanted anything
RIff 1
I suppose I'll let this go and find a reason I'll hold on to
RIff 2
I'm so ashamed of defeat

F#              G#m        E
And I'm out of reason to believe in me
F#         G#m             E
I'm out of trying to get by

B       F#            E
I'm so afraid of the gift you give me
G#m       F#                 E
I don't belong here and I'm not well
B        F#            E
I'm so ashamed of the lie I'm living
G#m            F#               E
Right on the wrong side of it all

(RIff 1)
(RIff 2)

RIff 1
I can't face myself when I wake up, and look inside a mirror
RIff 2
I'm so ashamed of that thing
RIff 1
I suppose I'll let it go untill I have something more to say for me
RIff 2
I'm so afraid of defeat

F#              G#m        E
And I'm out of reason to believe in me
F#         G#m             E
I'm out of trying to get by

B       F#            E
I'm so afraid of the gift you give me
G#m       F#                 E
I don't belong here and I'm not well
B        F#            E
I'm so ashamed of the lie I'm living
G#m            F#               E
Right on the wrong side of it all

(RIff 1)
(RIff 2)

(RIff 1)
Hold me now I need to feel complete
(RIff 2)
Like I matter to the one I need

B       F#            E
I'm so afraid of the gift you give me
G#m       F#                 E
I don't belong here and I'm not well
B        F#            E
I'm so ashamed of the lie I'm living
G#m            F#               E
Right on the wrong side of it all

           G#m F#       E
Now I'm asha_____med of this
           G#m F#       E
I am so asha____med of this
           G#m F#       E
Now I'm so asha_____med of me
           G#m F#       E
I am so asha_____med of me
00:00 / 00:00
Outros vídeos desta música
Repetir
Outros vídeos desta música
Composição de Seether / Shaun Morgan
Colaboração e revisão:
23.354 exibições
    • ½ Tom
    • A
    • Bb
    • B
    • C
    • Db
    • D
    • Eb
    • E
    • F
    • F#
    • G
    • Ab
  • Adicionar à lista

    0 comentários

    Ver todos os comentários

    Entre para oCifra Club PRO

    Tenha acesso a benefícios exclusivos no App e no Site

    • Chega de anúncios

    • Prioridade de compra em lançamentos

    • Mais recursos no app do Afinador

    • Atendimento Prioritário

    • Descontos nos produtos Cifra Club

    • Ajude a produzir mais conteúdo

    00:00 / 00:00

    Cifra Club Pro

    Aproveite o Cifra Club com benefícios exclusivos e sem anúncios
    Cifra Club Pro
    Aproveite o Cifra Club com benefícios exclusivos e sem anúncios
    OK