Cifra Club

Words As Weapons

Seether

Cifra: Principal (violão e guitarra)
tom: Db (forma dos acordes no tom de Eb) Afinação: D G C F A D
Afinação Drop C

Intro

All I Really want is something beautiful to say 2x

D|---------------------------------------|
A|---------------------------------------|
F|---------------------------------------|
C|--5-5-5-5-5--(0)~--(3)~--(10)~---------|
G|--5-5-5-5-5--(0)~--(3)~--(10)~---------|
C|--5-5-5-5-5--(0)~--(3)~--(10)~---------|
 Pm . . . . .

D|---------------------------------------|
A|---------------------------------------|
F|--/15~-14~--7/14~14/15\14-12~~-8~-7~---|
C|---------------------------------------|
G|---------------------------------------|
C|---------------------------------------|

Verso

Keep me locked up in a broken mind...


Guitarra 1 sem distorção
D|--*---------------------------------------------------------------------------------------------------|
A|--*---------------------------------------------------------------------------------------------------|
F|--*---------------------------------------------------------------------------------------------------|
C|--12-12-12-12-12-12-12-12-7-7-7-7-7-7-7-7-14-14-14-14-14-14-14-14-12-12-12-12-12-12-12-12-------------|
G|--10-10-10-10-10-10-10-10-5-5-5-5-5-5-5-5-12-12-12-12-12-12-12-12-10-10-10-10-10-10-10-10-13-13-12-12-|
C|--*---------------------------------------------------------------------------------------13-13-12-12-|
                                                                                                        \
                                                                                                          4X
Guitarra 2 sem distorção                                                                                 /
D|--*---------------------------------------------------------------------------------------------------|
A|--*---------------------------------------------------------------------------------------------------|
F|--*---------------------------------------------------------------------------------------------------|
C|--12-12-12-12-12-12-12-12-7-7-7-7-7-7-7-7-10-10-10-10-10-10-10-10-5-5-5-5-5-5-5-5-8-8-7-7-------------|
G|--10-10-10-10-10-10-10-10-5-5-5-5-5-5-5-5-8--8--8--8--8--8--8--8--3-3-3-3-3-3-3-3-6-6-5-5-------------|
C|--*---------------------------------------------------------------------------------------------------|

Atenção no verso a partir da terceira repetição *
C|--5-5-5-5-5-|
G|--5-5-5-5-5-|
C|--5-5-5-5-5-|
 Pm . . . . .

Refrão

Ah Uuuuuuuuh ♪ 2x
Say can you help me right before the fall... ♪

Guitarra 1 com distorção
D|------------------------------------------------------|
A|------------------------------------------------------|
F|------------------------------------------------------|
C|--5-5--5-5-5--0-0--0-0-0--3-3--3-3-3--10-10--13-12----|
G|--5-5--5-5-5--0-0--0-0-0--3-3--3-3-3--10-10--13-12----|
C|--5-5--5-5-5--0-0--0-0-0--3-3--3-3-3--10-10--13-12----|

Guitarra 2 com distorção
D|------------------------------------------------------|
A|------------------------------------------------------|
F|--------------------------------------5-5-------------|
C|--5-5--5-5-5--0-0--0-0-0--3-3--3-3-3--5-5--1-0--------|
G|--5-5--5-5-5--0-0--0-0-0--3-3--3-3-3--3-3--1-0--------|
C|--5-5--5-5-5--0-0--0-0-0--3-3--3-3-3-------1-0--------|

All I Really want is something beautiful to say
(Keep me guessing,keep me terrified)...

Guitarra 1 com distorção
D|------------------------------|
A|------------------------------|
F|------------------------------|
C|--5~-8-7~-10-8~-12-10~-13-12~-|
G|--5~-8-7~-10-8~-12-10~-13-12~-|
C|--5~-8-7~-10-8~-12-10~-13-12~-|

Guitarra 2 com distorção
D|---------------------------|
A|---------------------------|
F|---------------------------|
C|--5~-8-7~-10-8~-0-10~-1-0~-|
G|--5~-8-7~-10-8~-0-10~-1-0~-|
C|--5~-8-7~-10-8~-0-10~-1-0~-|

Á partir do segundo refrão e do último refrão

All I Really want is something beautiful to say
(to never fade away, I Wanna live forever)...

Guitarra 3
D|-------------------------------------------------------------|
A|--8-8-8-8-8/10-10-10-10-10/11-11-11-11-11/13-13-13/16--15----|
F|---7-7-7-7----9--9--9--9----10-10-10-10----12-12-----15--15--|
C|-------------------------------------------------------------|
G|-------------------------------------------------------------|
C|-------------------------------------------------------------|

Bom Galera está aí,só ouvir bem pra saber onde tocar o quê.
Bem facinha.
Espero que consigam ;3 \o Valeu!
00:00 / 00:00
Outros vídeos desta música
Repetir
Outros vídeos desta música
Composição de Seether / Shaun Morgan
Colaboração e revisão:
  • Lucas Oliveira
3.842 exibições
    • ½ Tom
    • A
    • Bb
    • B
    • C
    • Db
    • D
    • Eb
    • E
    • F
    • F#
    • G
    • Ab
  • Adicionar à lista

    0 comentários

    Ver todos os comentários

    Entre para oCifra Club PRO

    Tenha acesso a benefícios exclusivos no App e no Site

    • Chega de anúncios

    • Prioridade de compra em lançamentos

    • Mais recursos no app do Afinador

    • Atendimento Prioritário

    • Descontos nos produtos Cifra Club

    • Ajude a produzir mais conteúdo

    00:00 / 00:00

    Cifra Club Pro

    Aproveite o Cifra Club com benefícios exclusivos e sem anúncios
    Cifra Club Pro
    Aproveite o Cifra Club com benefícios exclusivos e sem anúncios
    OK