Enviar cifraEntrar

Closing Time

Semisonic

Cifra: Principal
exibições 149.704
Tom: G
Intro: (G  D  Am  C) 3x

Riff (Piano)
*Inicia no começo da segunda série da Introdução
   fica a música toda e para apenas no refrão.


E|----------------------------------------|
B|-12---12---15---12---12---12---13---12--|
G|---12---12---12---12---12---12---12---12|
D|----------------------------------------|
A|----------------------------------------|
E|----------------------------------------|


Verso 1:
(G  D  Am  C)
Closing time, open all the doors
And let you out into the world
Closing time, turn all of the lights on
Over every boy and every girl
Closing time, one last call for alcohol
So finish your whiskey or beer
Closing time, you don´t have to go home
But you can´t stay here

Refrão:
(G  D  Am  C)
I know who I want to take me home
I know who I want to take me home
I know who I want to take me home
Take me home

Verso 2:
(G  D  Am  C)
Closing time, time for you to go out
To the places you will be from
Closing time, this room won´t be open
Till your brothers or your sisters come
So gather up your jackets, move into the exits
I hope you have found a friend
Closing time, every new beginning
Comes from some other beginning´s end

Refrão:
(G  D  Am  C)
I know who I want to take me home
I know who I want to take me home
I know who I want to take me home
Take me home

Passagem antes do solo
(Bb G#) 2 vezes

(Passagem antes do solo) (Piano)


E|------------11-10----------------------|
B|-11-9-11-13-------13-11-9-11-11-----11-|
G|--------------------------------10-----|
D|---------------------------------------|
A|---------------------------------------|
E|---------------------------------------|


E|----------11-10----------------------|
B|--9-11-13-------13-11-9-11-12----12--|
G|------------------------------12-----|
D|-------------------------------------|
A|-------------------------------------|
E|-------------------------------------|


     (G      D      Am      C)
E|----------------------------------------|
B|---15---12---12---12---13---12----------|
G|-12---12---12---12---12---12---12-------|
D|----------------------------------------|
A|----------------------------------------|
E|----------------------------------------|


Closing time, time for you to go out
To the places you will be from

(G  D  Am  C)
I know who I want to take me home
I know who I want to take me home
I know who I want to take me home
Take me home

(G  D  Am  C)
Closing time, every new beginning
Comes from some other beginning´s end
  • 1
  • 2
  • 3
  • 4
  • 5
  • 6
  • 7
  • 8
  • 9
  • 10
  • 11
  • 12
    Acordes para:
      Composição: Dan WilsonColaboração e revisão:

      0 comentários

        mostrar mais comentários

        Conseguiu tocar?

        17tocaram0ainda não

        Grave um vídeo tocando Closing Time e mande pra gente!

        00:00 / 00:00
        outros vídeos desta música
        repetirqualidadeautomática
        • automática
        Outro vídeos desta música
          00:00 / 00:00
          automática
          • automática
          fecharplay/pause subir/descer velocidade
            acordes
            fechar
            OK
            Feedback