Cifra Club

Aprenda

Propaganda

Sepultura

Cifra: Principal (violão e guitarra)
tom: E
Riff inicial:

E|----------------------11h12-----|  
B|-17-17-x-x-16-16-x-x------------|

G|-----------------------|
D|---2-2---------2-------| 
A|---2-2---------2-------|
E|---0-0--4-1-0--0-------|

( E5  A5 ) 2x

Riff do Refrão:

D|--2----7b8--5-7-------|
A|--2--x-7b8--5-7--x----|
E|--0--x-5b6--3-5--x----|

( E5  G )

( E5  A5 )

P.M.
----------------------------------|
-5-0-5-0-5-0-5-0-5-0-5-0-5-0-5-0--|
--P-H-P-H-P-H-P-H-P-H-P-H-P-H-P-H-|
----------------------------------|
----------------------------------|
----------------------------------|

----------------------------------------|
-5-0-5-3-0-5-0-5-3-0-5-0-5-3-0-5-0-5-0--|
--P-H-P-P-H-P-H-P-P-H-P-H-P-P-H-P-H-P-H-|
----------------------------------------|
----------------------------------------|
----------------------------------------|

--P-H-P-H-P-H-P-H-------|-----------------|
-5-0-5-0-5-0-5-0--------|-----------------|
-----------------5-/-21-|-(21)--23--(23)/-|
------------------------|-----------------|
------------------------|-----------------|
------------------------|-----------------|

-7-8-10-8-7-8-10-8--7-8-10-8-7-10-8-7-10-8-7-10---|
--H-H--P-P-H-H--P----H-H--P-P-H--H-P-P--H-P-P--H--|
--------------------------------------------------|
--------------------------------------------------|
--------------------------------------------------|
--------------------------------------------------|

--------------------------------------------------|
-7-8-7----7-8-10--8-7/5------7/10-8-7-5------7-0--|
--H-P--9---H-H-----P----7-4------P-P-P---7-4--P---|
-------------------------P----------------P-------|
--------------------------------------------------|
--------------------------------------------------|

------------------------------------------|
-8-7-5------------------------------------|
--p-p----7-4-5-7-5-4----4-5-7-5-4---------|
------------H-H-P-P--7---H-H-P-P--7-4-5---|
-----------------------------------P-H-H--|
------------------------------------------|

------------------------------(0)--------|
------------------------------(0)--------|
------------------------------(0)--12-12-|
-7-5-4------------------------(0)--------|
--P-P----7-4--2-3-5-3-2-0---0------------|
----------P----H-H-P-P-------------------|

---------------------------|-------------------------|
------------------------14-|-14---14-----12-------9/-|
--12-12-14-12--14-12-14-14-|-14---14--14----14/11----|
---------------------------|-------------------------|
---------------------------|-------------------------|
---------------------------|-------------------------|
                                                 H    HARM.
--------------------------16-16-|-16-16-16-17--17-19--------|
--------------15-15----15-15-15-|-15-15-15-15--15-----------|
-16-16-16-16--16-16-16-16-16-16-|-16-16-16-16--16-----------|
--------------------------------|---------------------19----|
--------------------------------|---------------------------|
--------------------------------|---------------------------|

-0---0-0--0-0-0---0-0-0-|-0-0----------------0-|
-3-5-5-5--5-5-3-5-5-5-5-|-0-0----------------0-|
--H------------H--------|-----2--2-3-2-0-------|
------------------------|-------H-P-P----5-2-2-|
------------------------|-----------------P----|
------------------------|----------------------|

-12-10--------12-10-0--12-10-0--0--12-10-0--12-10-0--12-10-0-|
---P----12-10---P--P-----P--P--------P--P-----P--P-----P--P--|
----------P--------------------------------------------------|
-------------------------------------------------------------|
-------------------------------------------------------------|
-------------------------------------------------------------|

-12-10-0--12-10-0--12-10-0--12-10-0--12/-||
---P--P-----P--P-----P--P-----P--P-------||
-----------------------------------------||
-----------------------------------------||
-----------------------------------------||
-----------------------------------------||

Solo:

------------------||
------------------||
------------------||
------------------||
----/8-8-8--7---2-||
-0--/6-6-6--5---0-||

------------------------||
------------------------||
------------------------||
------------------------||
------------------------||
-0-0-0-0-0--1-1-1-1-1-1-||
  ......................

E|-------------------------||
B|-------------------------||
G|-------------------------||
D|-------------------------||
A|-2-2-2--2-2--2-2--2--2-2-||
E|-0-0-0--0-0--0-0--0--0-0-||
    . .  . .  . .  .  . .

|-0-|------------------------------------|
|-0-|------------------------------------|
|-0-|------------------------------------|
|-0-|------------------------------------|
|-0-|-8----------------------------------|
|-0-|-6--0-0-0--0-0-0-0-0--0-0-0-0-0-0-0-|
|        . . .  . . . . .  . . . . . . .

|------------------------------------|--------|
|------------------------------------|--------|
|------------------------------------|--------|
|------------------------------------|--------|
|-9----------------------------------|--8--0--|
|-7--0-0-0--0-0-0-0-0--0-0-0-0-0-0-0-|--6--0--|
Composição de Sepultura
Colaboração e revisão:
  • Vicente Luz
  • Caio Bella
9.874 exibições
    • ½ Tom
    • A
    • Bb
    • B
    • C
    • Db
    • D
    • Eb
    • E
    • F
    • F#
    • G
    • Ab
  • Adicionar à lista

    0 comentários

    Ver todos os comentários

    Conseguiu tocar?

    0 Tocaram 0 Ainda não

    Grave um vídeo tocando Propaganda e nos envie!

    00:00 / 00:00
    outros vídeos desta música
    repetir qualidade Automático
    Outros vídeos desta música
    00:00 / 00:00
    Automático

    Cifra Club Pro

    Aproveite o Cifra Club com benefícios exclusivos e sem anúncios
    Cifra Club Pro
    Aproveite o Cifra Club com benefícios exclusivos e sem anúncios
    OK