Cifra Club

Refuse/Resist

Sepultura

Cifra: Principal
exibições 26.741
Tom: C
tuning:D G C F A D

Intro  play 4times
|--------------------||
|--------------------||
|--------------------||
|--------------------||
|--3-3-3-3-2---------||
|--1-1-1-1-0---------||

 Riff A  play 8times
|-----------------------------||
|-----------------------------||
|-----------------------------||
|-----------------------------||
|-----------------------------||
|-6-6-6-6-0--6-6-6-6-0--6-0-0-||
|
| play with riffA 4times
|----------------------------------------||
|-11-11-11-11----11-11-11-11----11-11----||
|-------------9--------------9--------9--||
|----------------------------------------||
|----------------------------------------||
|----------------------------------------||

PLAY 3 TIMES
|--------------------|----------||
|--------------------|----------||
|--------------------|----------||
|-3--X-X--6--9-9-----|-9-9-9-9--||
|-1--X-X--4--7-7-----|-7-7-7-7--||
|--------------------|-0-0-0-0--||

RHY.FIG.1  8 TIMES
|--------------------||
|--------------------||
|--------------------||
|--------------------||
|---------2--3-5--6--||
|-0-0-0-0-0--1-3--4--||
  . . . .

PLAY RIFF A  3TIMES
THE 4 TIME PLAY THIS
|-------------------------------||
|-------------------------------||
|-------------------------------||
|-------------------------------||
|-------------------------------||
|-6-6-6-6-0--6-6-6-6-6-6-6-6-6--||
             . . . . . . . . .

PLAY RHY.FIG.1 8 TIMES

CHORUS RIFF
|---------------------------|------------------------------------||
|---------------------------|------------------------------------||
|---------------------------|------------------------------------||
|---------------------------|------------------------------------||
|-10--10-10-10-10/6-6-6-6-2-|-6-8-8-8-8--6-2----10-10-10-10--6-2-||
|-8---8--8--8---8/4-4-4-4-0-|-4/6-6-6-6--4-0--4/8--8--8--8---4-0-||

|-----------------------------||
|-----------------------------||
|-----------------7-6--6-7-6--||
|-7-6--6----------5-4--4-5-4--||
|-5-4--4--6-5--5--------------||
|---------4-3--3--------------||

SOLO RIFF
|----------------||
|----------------||
|----------------||
|----------------||
|--5--4-4-4-4-4--||
|--3--2-2-2-2-2--||
|
|-----------------------------||
|-----------------------------||
|-----------------7-6--6-7-6--||
|-7-6--6----------5-4--4-5-4--||
|-5-4--4--6-5--5--------------||
|---------4-3--3--------------||

SOLO W/WAH
|------------------------------------------------------|
|------------------------------------------------------|
|--16---16-16-16-16-16-16-16-16-16-16-16-16-16-16\-/16-|
|------------------------------------------------------|
|------------------------------------------------------|
|------------------------------------------------------|
|
|---------------------------------------------------------|
|--H----P------H----P-------------------------------------|
|-14-17-14----14-17-14----14-17-14---P------P-------------|
|----------16----------16----------16-14--16-14--16-14----|
|------------------------------------------------------16-|
|---------------------------------------------------------|
|
|---------------------------------------|
|---------H-----------------------------|
|-------14-16---------------------------|
|-14-16-------16-14--16-14-------\----4-|
|---------------P------P---16-14-4\-----|
|----------------------------P-----\----|
|                                   SL.
|
|----6-6-6-7-6-6-6-7-6-6-6-7-6-------------------|
|------------------------------------------------|
|------------------------------------------------|
|-4-----------------------------4-4-4--4-4-4-----|
|--------------------------------------------X/0-|
|------------------------------------------------|
|
|------------------------------------------------------|
|-14-14-14--16-----------------------------------------|
|-14-14-14--16--6--2----------------6-6----------------|
|------------------2----------------5-5----------------|
|-----------------------------4-6-4------4-6-4---6-6-6-|
|-----------------------/17\---H-P--------H-P----------|
|
|----------------------------------------------------|
|-------------------------------------------------5--|
|-------------------------------/8-6-8-6---6--8------|
|-------------5--7--5-7-5-5--5----P-H-P--------------|
|-4-6-4-6-4----------H-P-----------------------------|
|--H-P-H-P--7----------------------------------------|
|
|-\9--9/----9--9---9--9--9-12-9-12-9----------------|
|-\9--9/--5/9--9---9--9---H----H--P---11------11----|
|------------------------------------------9---9----|
|-------------------------------------------------0-|
|---------------------------------------------------|
|---------------------------------------------------|
|
|------------9-12-9-----12-----22------|
|------4/11---H--P---11-----21-----21/-|
|---2----------------------------------|
|-1------------------------------------|
|--------------------------------------|
|--------------------------------------|

PLAY RIFFA 4TIMES
PLAY RHY.FIG.1 8 TIMES
CHORUS
RIFFA 8TIMES
Acordes para:

    0 comentários

      mostrar mais comentários

      Conseguiu tocar?

      2tocaram0ainda não

      Grave um vídeo tocando Refuse/Resist e mande pra gente!

      00:00 / 00:00
      outros vídeos desta música
      repetirqualidadeautomática
      Outro vídeos desta música
        00:00 / 00:00
        automática
        OK