Notificações Amigos pendentes

      Sérgio Reis

      Berrante de Ouro

      48.665 exibições
      Tom: E
      Introdução: E A E A A6 E A E A 
       
      
      e|-|------------------------------------------------------------ 
      B|-|------------------------------------------------------------ 
      G|-|---------------------------2--------------2----------------- 
      D|-|------------4-1----7-7-6-2-2-2/7--6-6-4-1-2-6-4-2-1-2-4-6--- 
      A|-|--5-5-5-5-3-3-0-5--7-7-5-2---2/7--5-5-3-0---5-3-2-0-2-3-5--- 
      E|-|--4-4-4-4-2-----4------------------------------------------- 
      
       
      
      e|-|------------------------------------------------------------ 
      B|-|------------------------------------------------------------ 
      G|-|---------------------------2--------------2----------------- 
      D|-|------------4-1----7-7-6-2-2-2/7--6-6-4-1-2-6-4-2----------- 
      A|-|--5-5-5-5-3-3-0-5--7-7-5-2---2/7--5-5-3-0---5-3-2----------- 
      E|-|--4-4-4-4-2-----4------------------------------------------- 
      
       
             A              E     A 
      Esta casinha junto ao estradão 
                               A9     E   E7 
      Faz muito tempo que eu parei aqui 
                D                E 
      Vem minha velha vamos recordar 
                 D           E    A 
      Quantas boiadas eu já conduzi 
       
                              E       A 
      Fui berranteiro e ao me ver passar 
              A7              D 
      Você surgia acenando a mão 
                         E       A 
      Até que um dia eu aqui fiquei 
                E              A 
      Prezo no laço do seu coração 
       
       A   E    A                    A9         E 
      Vê ali esta, o meu berrante no morão do ipê 
             D       E  E7          D          E      A 
      Vou cuidar melhor, porque foi ele que me deu você 
       
      Solo: E A E A 
       
                  A           E      A 
      Me lembro o dia que eu aqui parei 
                                 A9     E   E7 
      Pra aquele viajem não cheguei ao fim 
               D                E 
      Foi a boiada e com você fiquei 
             D            E         A 
      E os peões dizendo adeus pra mim 
       
                             E     A 
      Vem minha velha veja o estradão 
              A7                 D 
      E o berrante que uniu nós dois 
                            E       A 
      Nuvem de pó que para traz deixei 
              E                   A 
      Recordações do tempo que se foi 
       
      A   E    A                    A9         E 
      Vê ali esta, o meu berrante no morão do ipê 
             D       E  E7          D          E      A 
      Vou cuidar melhor, porque foi ele que me deu você 
       
      Solo: E A E F 
       
              Bb             F     Bb 
      Daquele tempo que bem longe vai 
                          Ab9     F  F7 
      Do meu berrante repicando além 
              Eb               F 
      Eco de choro vindo do sertão 
                Eb            F       Bb 
      E ao recordar fico a chorar também 
       
                           F     Bb 
      Não é de ouro meu berrante não 
                 Bb7                Eb 
      Mais para mim ele tem mais valor 
                            F      Bb 
      Porque foi ele que me deu você 
               F                    Bb 
      E foi você que me deu tanto amor 
       
      Bb  F    Bb                   Ab9        F 
      Vê ali esta, o meu berrante no morão do ipê 
             Eb      F  F7          Eb         F      Bb 
      Vou cuidar melhor, porque foi ele que me deu você 
       
      E no fim: Bb Eb  Eb Bb F Bb 
            
      
      G|-|--------------------- 
      D|-|-----------------3--- 
      A|-|--3-3-3-4--4-3-1-3--- 
      E|-|--1-1-1-3--3-1-1-----
      

      Comentários 1

      140 .
      • rcp64 rcp64: Em 10/02/2011 23:42

        a musica não bate com o clipe, coyotemau

      140 cancelar

      conseguiu tocar?

      covers

      Grave um vídeo tocando Berrante de Ouro e mande pra gente!

      Ex.: http://www.youtube.com/watch?v=0IvSvIwGdwk
      ver covers de outras músicas »
      0:00 / 0:00

      Capítulos

        1 versão de violão dificuldade exibições contribuição e correção
        1 versão de guitarra dificuldade exibições contribuição e correção
        1 versão de cavaco dificuldade exibições contribuição e correção
        1 versão de teclado dificuldade exibições contribuição e correção
        play/pausefechar subir/descer velocidade
        6ª corda E5ª corda A4ª corda D3ª corda G2ª corda B1ª corda E
          acordes
          publicidade
          fechar
          ok