Cifra Club

Chop

Sevendust

Cifra: Principal (violão e guitarra)
Selo Cifra Club: esta cifra foi revisada para atender aos critérios oficiais da nossa Equipe de Qualidade.
tom: Am
Riff 1 (acoustic, use hybrid picking)
E|----------------0-----------0----------------0-------------|
B|------------------------0----------------------------------|
G|-4b---------------------------4b---------------------------|
D|-x-----------2b-----2h3---0---x-----------7b---------------|
A|-5b-2--2--2-------------------5b-2--2--2---------7p5---5---|
E|----0--0--0-------0--------------0--0--0-------0-----0---0-|
                                                        *   *

E|----------------0-----------0----------------0-------------|
B|------------------------0----------------------------------|
G|-4b---------------------------4b---------------------------|
D|-x-----------2b-----2h3---0---x-----------7b-----2p0---0---|
A|-5b-2--2--2-------------------5b-2--2--2-------------------|
E|----0--0--0-------0--------------0--0--0-------0-----3---3-|
                                                        *   *

Riff 2 (distortion, use hybrid picking)
E|-----------------------------------------------------------------|
B|----0------0--------0------0--------0------0---------------------|
G|-------------------------------------------------------7-7---7-7-|
D|-------------------------------------------------------x-x---x-x-|
A|-7b-----7b-------7b-----7b-------7b-----7b-------------5-5---5-5-|
E|------0------0--------0------0--------0------0---0-0-0-----0-----|
                                                    * * *     *

E|------0-------------0------0--------0------0-------------------------|
B|---------------------------------------------------------------------|
G|---------------------------------------------------------------------|
D|---------------------------------------------------------------------|
A|---7b-----7b-----7b-----7b-------7b-----7b-----5-5-5----5-5-5--5-5-5-|
E|-0------0----0--------0------0--------0------0-3-3-3--0-3-3-3--3-3-3-|
                                                  * * *  * * * *  * * *

Riff 3 (acoustic, use hybrid picking)   "On my way to a dark horizon..."
E|-------0---0-----0------0-----0-----0-----0-|
B|----------------------------------------0---|
G|--------------------------------------------|
D|---7-----7----------------------------------|
A|-------------5-7----------5-7---5-7---------|
E|-0---0-------------3b-0---------0-0---3-----|

Play Riff 3 x2   "Disgrace has yet to find me..."
Play Riff 2 x1   "Damn all your little voices..."

Riff 4   "Look up to the blackened sky..."
E|---0---0---0---0---0---0-----0---0------------|
B|----------------------------------------------|
G|-3---4---6---7---6---4------------------------|
D|-------------------------4h5---4---2h4p2p0-2*-|
A|----------------------------------------------|
E|----------------------------------------------|

Riff 5   "I see this heading for disaster..."
E|-----------------------0---------------------------|
B|---------------------5-5---------------------------|
G|-------------------5---5---------------------------|
D|-----------------4---------------------------------|
A|---------------------------------------------------|
E|-0--/13-12\-0------------0-000-0-0-00---0-0-0-0000-|
                            * *** * * **   * * * ****

E|-------------------------------0-0---------0-0-------------------------|
B|-------------------------------7-7---------7-7-------------------------|
G|-------------------------------0-0---------0-0----12-12-12-12-11-11-11-|
D|-----------------------7-9-----9-9-7-9-----9-9----x--x--x--x--x--x--x--|
A|-----------------------x-x-----x-x-x-x-----x-x----10-10-10-10-9--9--9--|
E|-13-12-10-12-10-0-8\-0-8-8-8-8-8-8-8-8-8-8-8-8-3b-0--0--0--0--0--0--0--|
    *  *  *  *  *  *          * *         * *

Play Riff 5 x2   "I see this opened up and bleeding..."
Play Riff 2 x1   (second half only)
Play Riff 3 x2   "What do you say..."
Play Riff 2 x1   "Damn all your little voices..."
Play Riff 4 x1   "Look up to the blackened sky..."
Play Riff 5 x2   "I see this heading for disaster..."

Riff 6
E|-----------------------------------------------------------|
B|-----------------------------------------------------------|
G|-----------------------------------------------------------|
D|-----------------------------------------------------------|
A|-----------------------------------------------------------|
E|-0--0--0--0--0--0--0--0--0--0--0--0--0--0--0--0--0--0--0-0-|
    *  *  *  *  *  *  *  *  *  *  *  *  *  *  *  *  *  *  * *

Play Riff 6 x2

Solo rhythm
E|---------------------0---------------------------------------|
B|---------------------7\--------------------------------------|
G|---------------------0---------------------------------------|
D|---------------------9\--------------------------------------|
A|---------------------x---------------------------------------|
E|-0--0--0--0--0--0--0-8\-0--0--0--0--0--0--0--0--0--0--0--0-0-|
    *  *  *  *  *  *  *    *  *  *  *  *  *  *  *  *  *  *  * *

E|-------------------0~-------------0--0--0~--------------------------------|
B|-------------------7~-------------7--7--7~--------------------------------|
G|-------------------0~-------------0--0--0~--------------------------------|
D|-------------------9~-------------9--9--9~--------------------------------|
A|-------------------x--------------x--x--x---------------------------------|
E|-0--0--12\-0--0--0-8~-0--0--12\-0-8--8--8~-0--0--0--13-12-0-13-12-0-13-12-|
                                                       *  *  * *  *  * *  *

Solo (w/ heavy delay, lightly palm-muted)
E|---------------------------------------------------------------------------------------------|
B|-9-----9-----9-----9-----9-----9-----9-----9-----7-----7-----7-----7-----7-----7-----7-----7-|
G|---7h9---7h9---7h9---7h9---7h9---7h9---7h9---6h7---6h7---6h7---6h7---6h7---6h7---6h7---6h7---|
D|---------------------------------------------------------------------------------------------|
A|---------------------------------------------------------------------------------------------|
E|---------------------------------------------------------------------------------------------|

E|------------------------------------------------------|
B|-----10-----10-----10-----10-----10-----10-----10-----|
G|-7h9----7h9----7h9----7h9----7h9----7h9----7h9----7h9-|
D|------------------------------------------------------|
A|------------------------------------------------------|
E|------------------------------------------------------|

E|------------------------------------0~~--------0-----------------|
B|------9------10-----/12-14----------14~--16h17---16-17~--19~-21~-|
G|-/7-9---9-/11--11~---------11-9-/11-11~--------------------------|
D|-----------------------------------------------------------------|
A|-----------------------------------------------------------------|
E|-----------------------------------------------------------------|

Play Riff 3 x1
Play Riff 5 x2   "I see this heading for disaster..."

Ending
E|-------0--------------0-------------0-------------------0----------|
B|--------------------------------------------------------7\---------|
G|--------------------------------------------------------0----------|
D|--------------------------------------------------------9\---------|
A|--------------------------------------------------------x----5-5-5-|
E|-0-13\---0-0-0-0---13\--0-0-0-0--13\--0-0-0-0---0-0-0-0-8\-0-3-3-3-|
                                                   * * * *    * * * *
Outros vídeos desta música
    5 exibições
      • ½ Tom
      • Am
      • Bbm
      • Bm
      • Cm
      • C#m
      • Dm
      • Ebm
      • Em
      • Fm
      • F#m
      • Gm
      • G#m
    • Adicionar à lista

    Afinação da cifra

    Afinador online

      0 comentários

      Ver todos os comentários

      Entre para o Cifra Club PRO

      Tenha acesso a benefícios exclusivos no App e no Site

      • Chega de anúncios

      • Badges exclusivas

      • Mais recursos no app do Afinador

      • Atendimento Prioritário

      • Aumente seu limite de lista

      • Ajude a produzir mais conteúdo

      Cifra Club Pro

      Aproveite o Cifra Club com benefícios exclusivos e sem anúncios
      Cifra Club Pro
      Aproveite o Cifra Club com benefícios exclusivos e sem anúncios
      Ops (: Contenido disponible sólo en portugués.
      OK