Cifra Club

Aprenda

Driven

Sevendust

Cifra: Principal (violão e guitarra)
tom: F#
of effects used in this song and a lot of their other songs off this album like wah,
and reverb. I'm going to be tabbing more off this album soon, so keep tuning in, but for 

Intro - Just Guitar 1 w/wah pedal open
|-------------------------------|
|-------------------------------|
|-------------------------------|
|-------------------------------|  Repeats
|-3----------------3------------|
|---4-2b-2-2-2-2-2---4-2b-2-2-2-|
         . . . . .        . . .

Fill - Right before transition to Verse
|---------|
|---------|
|---------|
|---------|
|-3h4h5-2-|
|---------|

|---------------------------------|
|---------------------------------|
|---------------------------------|
|---------------------------------|   4x
|-3------2-2-2-2-2-3------3h4h5-2-|
|---4-2b-2-2-2-2-2---4-2b---------|
         . . . . .

Verse Continued
|----------------------------|
|----------------------------|
|----------------------------|
|----------------------------|   4x
|-3------2-2--2-3------2-2-2-|
|---4-2b-2-2--2---4-2b-2-2-2-|
         . .  .        . . .

|---------------------------------------------|
|---------------------------------------------|
|-7/-9999999999-7/-13-13-13-13-9/-14-14-14-14-|
|-x--xxxxxxxxxx-x--x--x--x--x--x--x--x--x--x--|
|-5/-7777777777-5/-11-11-11-11-7/-12-12-12-12-|
|---------------------------------------------|

Chorus Continued
|-------------------------------|
|-------------------------------|
|-12-12-12-12-12-12-9-9-9-9-9-9-|
|-10-10-10-10-10-10-7-7-7-7-7-7-|
|-10-10-10-10-10-10-7-7-7-7-7-7-|
|-10-10-10-10-10-10-7-7-7-7-7-7-|

Play Intro

Play Fill

Play Verse

Play Chorus

Fill 2
|--------------------|
|--------------------|
|--------------------|
|-----------------2~-|   Repeats
|-5h7-8p7---------2~-|
|---------8p7-5h7-2~-|

Bridge
|-------------------------------------------------|
|-------------------------------------------------|
|-------------------------------------------------|
|-2-----------------------------------------------|  4x
|-2--2-2--2-2--2-2--2-3-2-2--2-2--5h7-8p7---------|
|-2--2-2--2-2--2-2--2-3-2-2--2-2----------8p7-5h7-|
     . .  . .  . .  .   . .  . .

Solo Backing - Guitar 1
|--------------------------|
|--------------------------|
|--------------------------|
|--------------------------|   4x
|-2-2--2-2--2-2--2-2-2-2-2-|
|-2-2--2-2--2-2--2-2-2-2-2-|
  . .  . .  . .  . . . . .

Solo Build-Up - Guitar 2 w/wah, this part is during the Bridge
|----------------|
|----------------|
|-9--7--9-9-99\7-|
|-x--x--x-x-xx-x-|  4x
|-7--5--7-7-77\5-|
|----------------|

Solo - Guitar 2 w/wah
|-----------------------------|
|-----------------------------|
|-7/-9999999999-7/-9999999999-|
|-x--xxxxxxxxxx-x--xxxxxxxxxx-|
|-5/-7777777777-5/-7777777777-|
|-----------------------------|

Solo Continued

|----------------------------------|
|----------------------------------|
|-7/-13-13-13-13-13-13-13-13-13-13-|
|-x--x--x--x--x--x--x--x--x--x--x--|
|-5/-11-11-11-11-11-11-11-11-11-11-|
|----------------------------------|

Solo Continued
|----------------------------------|
|----------------------------------|
|-7/-14-14-14-14-14-14-14-14-14-14-|
|-x--x--x--x--x--x--x--x--x--x--x--|
|-5/-12-12-12-12-12-12-12-12-12-12-|
|----------------------------------|

Play Chorus

|-------------------------------|
|-------------------------------|
|-------------------------------|
|-------------------------------|
|-3------2-2-2-2-2-3------2-2-2-|
|---4-2b-2-2-2-2-2---4-2b-2-2-2-|
         . . . . .        . . .

Play first part of Verse

|-------------------|
|-------------------|
|-------------------|
|-2-2---------------|
|-2-2---------------|
|-2-2---------------|

There you go, I'm almost dong with Under and Story Of Your Life, so I'll post them soon.

b = bend
h = hammer-on
p = pull-off
/ = slide up
\ = slide down
... = palm mute
488 exibições
    • ½ Tom
    • A
    • Bb
    • B
    • C
    • Db
    • D
    • Eb
    • E
    • F
    • F#
    • G
    • Ab
  • Adicionar à lista

    0 comentários

    Ver todos os comentários

    Conseguiu tocar?

    0 Tocaram 0 Ainda não

    Grave um vídeo tocando Driven e nos envie!

    00:00 / 00:00
    outros vídeos desta música
    repetir qualidade Automático
    Outros vídeos desta música
    00:00 / 00:00
    Automático

    Cifra Club Pro

    Aproveite o Cifra Club com benefícios exclusivos e sem anúncios
    Cifra Club Pro
    Aproveite o Cifra Club com benefícios exclusivos e sem anúncios
    OK