Cifra Club

Trust

Sevendust

Cifra: Principal (violão e guitarra)
Selo Cifra Club: esta cifra foi revisada para atender aos critérios oficiais da nossa Equipe de Qualidade.
tom: E
Riff 1 (let all notes ring out)
E|------------------------------------------------|
B|------------------------------------------------|
G|-----------7----7-----7------------6---6----6---|
D|-------11----11---11----9-------9----9---7----6-|
A|------------------------------------------------|
E|-0-0-0--------------------0-0-0-----------------|

Play Riff 1 x4

Riff 2
E|-0--0-0-0--0--0-0-0-0---0--0-0-0--0--0-0-0-0-0-0--0-0-0--0--0-0-0-0-0-0--0-0-0--0--0-0-0-0-0-|
B|-0--0-0-0--0--0-0-0-0---0--0-0-0--0--0-0-0-0-0-0--0-0-0--0--0-0-0-0-0-0--0-0-0--0--0-0-0-0-0-|
G|-6--6-6-6--6--6-6-6-6---9--9-9-9--9--9-9-9-9-9-7--7-7-7--7--7-7-7-7-7-6--6-6-6--6--6-6-6-6-6-|
D|-x--x-x-x--x--x-x-x-x---7--7-7-7--7--7-7-7-7-7-5--5-5-5--5--5-5-5-5-5-4--4-4-4--4--4-4-4-4-4-|
A|-4--4-4-4--4--4-4-4-4---x--x-x-x--x--x-x-x-x-x-x--x-x-x--x--x-x-x-x-x-x--x-x-x--x--x-x-x-x-x-|
E|----------------------0-8--8-8-8--8--8-8-8-8-8-6--6-6-6--6--6-6-6-6-6-5--5-5-5--5--5-5-5-5-5-|

Play Riff 2 x4   "When I hold my head down to the ground..."

Riff 3   "Too good to be true..."
E|-0-0-0-0-0-0--0-0-0-0---0--0-0-0--0--0-0-0-0-0-0--0-0-0--0--0-0-0-0-0-0--0-0-0--0--0-0-0-0-0-|
B|-0-0-0-0-0-0--0-0-0-0---0--0-0-0--0--0-0-0-0-0-0--0-0-0--0--0-0-0-0-0-0--0-0-0--0--0-0-0-0-0-|
G|-6/8-8-8-8-6--6-6-6-6---9--9-9-9--9--9-9-9-9-9-7--7-7-7--7--7-7-7-7-7-6--6-6-6--6--6-6-6-6-6-|
D|-x-x-x-x-x-x--x-x-x-x---7--7-7-7--7--7-7-7-7-7-5--5-5-5--5--5-5-5-5-5-4--4-4-4--4--4-4-4-4-4-|
A|-4/6-6-6-6-4--4-4-4-4---x--x-x-x--x--x-x-x-x-x-x--x-x-x--x--x-x-x-x-x-x--x-x-x--x--x-x-x-x-x-|
E|----------------------0-8--8-8-8--8--8-8-8-8-8-6--6-6-6--6--6-6-6-6-6-5--5-5-5--5--5-5-5-5-5-|

Riff 3 x2   "It's getting late and it's cold outside..."

Riff 4 (let all notes ring out)
E|-0------0---0-----0---0-----0---0----0------0----0------0---0-----0---0-----0------0-------0----0-|
B|-0-----------------------------------------------0------------------------------------------------|
G|-6--4h6---6---6/8---8---8/9---9---9----9/11---11-6--4h6---6---6/8---8---8/9---9/11---11/13---13---|
D|--------------------------------------------------------------------------------------------------|
A|--------------------------------------------------------------------------------------------------|
E|--------------------------------------------------------------------------------------------------|

Riff 5   "I've wronged you and steal everything from the truth..."
E|-0--0-0-0--0--0-0-0-0-0-0--0-0-0--0--0-0-0-0-0-0--0-0-0--0--0-0-0-0-0-0--0-0-0--0--0-0-0-0-0-|
B|-0--0-0-0--0--0-0-0-0-0-0--0-0-0--0--0-0-0-0-0-0--0-0-0--0--0-0-0-0-0-0--0-0-0--0--0-0-0-0-0-|
G|-4--4-4-4--4--4-4-4-4-4-6--6-6-6--6--6-6-6-6-6-4--4-4-4--4--4-4-4-4-4-6--6-6-6--6--6-6-6-6-6-|
D|-2--2-2-2--2--2-2-2-2-2-x--x-x-x--x--x-x-x-x-x-2--2-2-2--2--2-2-2-2-2-4--4-4-4--4--4-4-4-4-4-|
A|-0--0-0-0--0--0-0-0-0-0-4--4-4-4--4--4-4-4-4-4-x--x-x-x--x--x-x-x-x-x-x--x-x-x--x--x-x-x-x-x-|
E|------------------------0--0-0-0--0--0-0-0-0-0-3--3-3-3--3--3-3-3-3-3-5--5-5-5--5--5-5-5-5-5-|

E|-0--0--0-0-0-0-0--0-0-0-0--0--0-0--0-0--0-0-0-0--0--0-0--0-0-0--0--0--0--0--0---0--0---0--0---0--0--0--0--|
B|-0--0--0-0-0-0-0--0-0-0-0--0--0-0--0-0--0-0-0-0--0--0-0--0-0-0--0--0--0--0--0---0--0---0--0---0--0--0--0--|
G|-8--8--8-8-8/9-9--9-9-9-6--6--6-6--6-6--6-6-8-9--9--9-9--9-9/11-11-11-11/13-13--13-13--13-13--13-13-13-13-|
D|-x--x--x-x-x-x-x--x-x-x-x--x--x-x--x-x--x-x-x-x--x--x-x--x-x-x--x--x--x--x--x---x--x---x--x---x--x--x--x--|
A|-6--6--6-6-6/7-7--7-7-7-4--4--4-4--4-4--4-4-6-7--7--7-7--7-7/9--9--9--9//11-11--11-11--11-11--11-11-11-11-|
E|----------------------------------------------------------------------------------------------------------|

E|--0---0---0--0---0--0---0--0--0--0--0---0---0--0---0--0---0--0--0--0--|
B|--0---0---0--0---0--0---0--0--0--0--0---0---0--0---0--0---0--0--0--0--|
G|-/14--14--14-14--14-14--14-14-14-14-14--14--14-14--14-14--14-14-14-14-|
D|--x---x---x--x---x--x---x--x--x--x--x---x---x--x---x--x---x--x--x--x--|
A|-/12--12--12-12--12-12--12-12-12-12-12--12--12-12--12-12--12-12-12-12-|
E|----------------------------------------------------------------------|

Play Riff 1 x2
Play Riff 2 x2   "Insensitive to all your needs..."
Play Riff 3 x2   "I still can't believe you're going to leave..."
Play Riff 4 x1
Play Riff 5 x1   "I've wronged you and steal everything from the truth..."

Riff 6 (let all notes ring out)
E|-----0-------0----0----0-------|
B|---0----0--------------------0-|
G|----------2----1----1----1h2---|
D|-------------------------------|
A|-4-----------------------------|
E|-------------------------------|

Play Riff 6 x2
Play Riff 4 x1
Play Riff 5 x2   "I've wronged you and steal everything from the truth..."
Play Riff 6 x3.5

Ending
E|-0--0--0~~-|
B|-0--0--0~~-|
G|-8--9--11~-|
D|-x--x--x---|
A|-6--7--9~~-|
E|-----------|
Outros vídeos desta música
    55 exibições
      • ½ Tom
      • A
      • Bb
      • B
      • C
      • Db
      • D
      • Eb
      • E
      • F
      • F#
      • G
      • Ab
    • Adicionar à lista

    Afinação da cifra

    Afinador online

      0 comentários

      Ver todos os comentários

      Entre para o Cifra Club PRO

      Tenha acesso a benefícios exclusivos no App e no Site

      • Chega de anúncios

      • Badges exclusivas

      • Mais recursos no app do Afinador

      • Atendimento Prioritário

      • Aumente seu limite de lista

      • Ajude a produzir mais conteúdo

      Cifra Club Pro

      Aproveite o Cifra Club com benefícios exclusivos e sem anúncios
      Cifra Club Pro
      Aproveite o Cifra Club com benefícios exclusivos e sem anúncios
      OK