Cifra Club

Mighty To Save

Seventh Day Slumber

Cifra: Principal (violão e guitarra)
Selo Cifra Club: esta cifra foi revisada para atender aos critérios oficiais da nossa Equipe de Qualidade.
tom: A
(intro)

(guitarra 1) 
E|-----------------------------------------------|
B|-----------------------------------------------|
G|-----------------------------------------------|
D|-0-0--------0-0--------0-0---------0-0---------|
A|-0-0--------0-0--------0-0---------0-0---------|
D|-0-0--------0-0--------0-0---------0-0---------|
   . .        . .        . .         . .
(guitarra 2) 
E|-----------------------------------------------|
B|-----------------------------------------------|
G|-----------------------------------------------|
D|-----------------------------------------------|
A|----7/7/4/4----7/7/4/4------7/7/4/4----7/7/4/4-|
D|-----------------------------------------------|
      . . . .    . . . .      . . . .    . . . .
(guitarra 1)
E|---------------------------------------------|
B|---------------------------------------------|
G|---------------------------------------------|
D|-4-4-------4-4-4---------4-4--------4-4-4----|
A|-4-4-------4-4-4---------4-4--------4-4-4----|
D|-4-4-------4-4-4---------4-4--------4-4-4----|
   . .       . . .         . .        . . .
(guitarra 2)
E|---------------------------------------------------------|
B|---------------------------------------------------------|
G|---------------------------------------------------------|
D|----6/6/2/2-------6/6/2/2---  6/6/2/2-----6/2/0/6/2/0/6~-|
A|---------------------------------------------------------|
D|---------------------------------------------------------|
      . . . .       . . . .     . . . .     . . . . . .
(guitarra 2)
E|----------------------------------------------------------|
B|----------------------------------------------------------|
G|----------------------------------------------------------|
D|----6/6-----------6/6-------6/6-----------6---0--6---0-6~-|
A|--------7/7-----------7/7-------7/7---------7------7------|
D|----------------------------------------------------------|
      . . . .       . . . .   . . . .       . . .  . . .

(intro)

(verso 1)

(guitarra 2)
E|-------------------------------------|
B|-------------------------------------|
G|-------------------------------------|
D|---0------2---2------0------2---2----|
A|--0--0---2--2---2---0--0---2--2---2--|
D|-0------2----------0------2----------|

(refrão)

(guitarra 1 e 2)
E|------------------------------------|
B|------------------------------------|
G|------------------------------------|
D|-7-7-7-7-7-7-7-7-2-2-2-2-2-2-2-2----|
A|-7-7-7-7-7-7-7-7-2-2-2-2-2-2-2-2----|
D|-7-7-7-7-7-7-7-7-2-2-2-2-2-2-2-2----|

(guitarra 1 e 2)
E|------x-x-------------------x-x----------|
B|------x-x-------------------x-x----------|
G|------x-x-------------------x-x----------|
D|-0-0--x-x--7-7-7-7-----4-4--x-x--2-2-2-2-|
A|-0-0--x-x--7-7-7-7-----4-4--x-x--2-2-2-2-|
D|-0-0--x-x--7-7-7-7-----4-4--x-x--2-2-2-2-|

"Shine your light, and let the whole world see...."

(guitarra 1 e 2)
E|---------------------------------------------------|
B|---------------------------------------------------|
G|---------------------------------------------------|
D|-2-2-2-2-2-2-2-2-----------------2-2-2-2-2-2-2-s/4-|
A|-2-2-2-2-2-2-2-2-----------------2-2-2-2-2-2-2-s/4-|
D|-2-2-2-2-2-2-2-2-----------------2-2-2-2-2-2-2-s/4-|

(guitarra 1 e 2)
E|----------------------------------|
B|----------------------------------|
G|----------------------------------|
D|-0---0--7---7---2-2-2-2-2-2-2-s/4-|
A|-0---0--7---7---2-2-2-2-2-2-2-s/4-|
D|-0---0--7---7---2-2-2-2-2-2-2-s/4-|

(guitarra 2)
E|------------------------------|
B|------------------------------|
G|---s/14/13~--14/13/13~--------|
D|------------------------------|
A|------------------------------|
D|------------------------------|

E|------|
B|------|
G|------|
D|--0---|
A|--0---|
D|--0---|
Outros vídeos desta música
    2.114 exibições
      • ½ Tom
      • A
      • Bb
      • B
      • C
      • Db
      • D
      • Eb
      • E
      • F
      • F#
      • G
      • Ab
    • Adicionar à lista

    Afinação da cifra

    Afinador online

      0 comentários

      Ver todos os comentários

      Entre para o Cifra Club PRO

      Tenha acesso a benefícios exclusivos no App e no Site

      • Chega de anúncios

      • Badges exclusivas

      • Mais recursos no app do Afinador

      • Atendimento Prioritário

      • Aumente seu limite de lista

      • Ajude a produzir mais conteúdo

      Cifra Club Pro

      Aproveite o Cifra Club com benefícios exclusivos e sem anúncios
      Cifra Club Pro
      Aproveite o Cifra Club com benefícios exclusivos e sem anúncios
      Ops (: Contenido disponible sólo en portugués.
      OK