Cifra Club

Aprenda

Blind Spell

Shaman

Cifra: Principal (violão e guitarra)
Tom: C
Intro: (usando riff) 
1 parte:
D seguido de palm mute
2 parte: 2x

D E F# E 
D E G F# E D  
3 parte:
D C
D C 
----------------------------------------
A                 G       Em    
From the day you took me home
F             G    C
I knew I was not alone
F                                D  A
And all the pain I had seemed to be gone

A                 G       Em
Running backwards to the edge
F                G      C   
Things I don´t dare to confess
F                             D     A
You´ve locked my secrets in a blind spell

C A# C   D     A#    C
 Oh ,    never leave me 
C A# C  D     A#
Never   walk away
G         C        D            Em
There´s a spell on me that, for me
                A   B  C#  B
Could spell the end
A  G

A                G    E
If yours feeling fall apart
F                 G        C
And you an´t sustain your heart
F                             D      A  
It´s time to realise what you really are


C A# C   D      A#      C
 Oh ,    please believe me 
C A# C     D   A#
I´ve Been  so ashamed
G         C        D            Em
Take your spell on me, it could drive me
        A   
To the end

A
Sometimes we run
D                                   C    A
Sometimes we hide inside a hole and fade away
A
We turn to stone
    D
And let the weather carve it´s traces
   C                 A
To open our eyes one day…

e |--------10~-12~|--------------------------------------------------------------------|
b |12~-14~--------|-----------8-8~-------11~--9-7---5-7-5---------7--8-7-5~------------|
G |---------------|-7~---9-10----------9------------------7----5-----------------------|
D |---------------|--------------------------------------------------------------------|
A |---------------|--------------------------------------------------------------------|
E |---------------|--------------------------------------------------------------------|

G abafado

e |------------------------------------------------------------------------|
b |------------------------------------------------------------------------|
G |---------------------------4-5~--4--------------------------------------|
D |--------4~------3~----3-4-----------------------------------------------|
A |--6~-8-----5-6-----5----------------------------------------------------|
E |------------------------------------------------------------------------|

e |------------------------------------------------------------------------|
b |------------------------------------------------------------------------|
G |---------------------------3~-2-0------------4---5--3~------------------|
D |--------4~------3~----3-4--------------5~--5---5------------------------|
A |--6~-8-----5-6-----5----------------------------------------------------|
E |------------------------------------------------------------------------|

-------  Solo  -------

A                                      G
Should I throw myself in the oceans of time
A                                   G
Without you will I ever dare to survive

A
Sometimes we run
D                                   C    A
Sometimes we hide inside a hole and fade away
A
We turn to stone
    D
And let the weather carve it´s traces
   C                 A
To open our eyes one day…

A        G           C                A 
Help me, help me, to open my eyes someday.

Por Bruno Lucas e Luciano Gonçalves.
Composição de Andre Matos / Ricardo Confessori
Colaboração e revisão:
  • renan rezende
  • Bruno Lucas
14.630 exibições
    • ½ Tom
    • A
    • Bb
    • B
    • C
    • Db
    • D
    • Eb
    • E
    • F
    • F#
    • G
    • Ab
  • Adicionar à lista

    0 comentários

    Mostrar mais comentários

    Conseguiu tocar?

    0 Tocaram 0 Ainda não

    Grave um vídeo tocando Blind Spell e mande pra gente!

    00:00 / 00:00
    outros vídeos desta música
    repetir qualidade Automático
    Outros vídeos desta música
    00:00 / 00:00
    Automático

    Cifra Club Pro

    Aproveite o Cifra Club com benefícios exclusivos e sem anúncios
    Cifra Club Pro
    Aproveite o Cifra Club com benefícios exclusivos e sem anúncios
    OK