Cifra Club

Aprenda

Distant Thunder

Shaman

Cifra: Principal (violão e guitarra)
Tom: E
Intro (0:10)

Guitar 1 (with wah-wah on)

e------14-15--17-17p19p17----15bf-12--/12-----------------------
B-15bf--------------------17--------------13-15----13bf-15bf----
G-----------------------------------------------12--------------
D---------------------------------------------------------------
A---------------------------------------------------------------
E---------------------------------------------------------------

(0:24)

e------14-15--17-17p19p17----15bf-12----------------------------
B-15bf--------------------17---------13-12-15-15bf--------------
G---------------------------------------------------------------
D---------------------------------------------------------------
A---------------------------------------------------------------
E---------------------------------------------------------------

Guitar 2

e---------------------------------------------------------------
B---------------------------------------------------------------
G------------9--7-5--4----------------9--7-5--4-----4-2--4------
D-2--4-5--7--9--7-5--4--7--2--4-5--7--9--7-5--4--2--4-2--4------
A-2--4-5--7--7--5-3--2--7--2--4-5--7--7--5-3--2--2--2-3--2------
E-0--2-3--5-------------5--0--2-3--5-------------0--------------

Intro 2

Guitar 1 (0:46)

e----5-7--7/8----5-7--------------------------------------------
B-5-----------5-------------------------------------------------
G---------------------------------------------------------------
D---------------------------------------------------------------
A---------------------------------------------------------------
E---------------------------------------------------------------

Guitar 2 (0:40)

e---------------------------------------------------------------
B---------------------------------------------------------------
G---------------------------------------------------------------
D-2-----------------2----------------2---------------2--------7-
A-2-----------------2----------------2---------------2--------7-
E-0--0-0-0-0--0-0-0-0-0-0-0-0--0-0-0-0--0-0-0-0--0-0-0--0-3-0-5-

Verse 1 (0:58) - 2 times

e------------------------------------------------------------------------
B------------------------------------------------------------------------
G-----------------------4------------------------------4-5-------4-------
D-2---------2-2---------4-2---------2-2---------5------4-5-------4-2-----
A-2---------2-2---------2-2---------2-2---------5------2-3-3-3-3-2-2-----
E-0-0-0-0-0-0-0-0-0-0-0---0-0-0-0-0-0-0-0-0-0-0-3-3-3-3------------0-0-0-

Verse 2

Guitar 1 (1:23)

e-------5---8\--/8-----5-7-----------------------------------------------
B-5-7-8---8--------7-8-------5-7-8---------------------------------------
G--------------------------8---------------------------------------------
D------------------------------------------------------------------------
A------------------------------------------------------------------------
E------------------------------------------------------------------------

Guitar 2 (1:21)

e------------------------------------------------------------------------
B------------------------------------------------------------------------
G----5---2---4---x-4-x-4-x-4---------------------------------------------
D----5---2---4---x-4-x-4-x-4---------------------------------------------
A--0-3---0---2---x-2-x-2-x-2---------------------------------------------
E-3----------------------------------------------------------------------

Verse 1 (1:31)

Bridge

Guitar 1 (1:56)

e-------5---8\--/8-----5-7----------5-6-----------8-----11-10---8--------
B-5-7-8---8--------7-8-------5-7-8--------8-10-11---\11-------11-10------
G--------------------------8---------------------------------------------
D------------------------------------------------------------------------
A------------------------------------------------------------------------
E------------------------------------------------------------------------

Guitar 2 (1:54)

e------------------------------------------------------------------------
B------------------------------------------------------------------------
G----5---2---4---4/9----8---5---7-x-x-7-x-x-7-x-x-7-x-x------------------
D----5---2---4---4/9----8---5---7-x-x-7-x-x-7-x-x-7-x-x-9\---------------
A--0-3---0---2---2/7----6---3---5-x-x-5-x-x-5-x-x-5-x-x-9\---------------
E-3-----------------------------------------------------7\---------------

Chorus (2:19)

e-------------------------------------------------------------------------
B-------------------------------------------------------------------------
G------------9--7-5--4-----------------9--7-5--4-----------4-5--------8-9-
D-2--4-5--7--9--7-5--4---7--2--4-5--7--9--7-5--4--2--------4-5--7--9--8-9-
A-2--4-5--7--7--5-3--2---7--2--4-5--7--7--5-3--2--2--------2-3--7--9--6-7-
E-0--2-3--5------------3-5--0--2-3--5-------------0-0-0-0-------5--7------

Riff 1 (2:47)

e-------------------------------------------------
B-------------------------------------------------
G----4-------------4---------------7---9-11-4-----
D--4-4-----------4-4-------------4-7-7-9-11-4-----
A--4-2-2-2-2-2-2-4-2-2-2-2-2-2-2-4-5-7-7-9--2-----
E--2-------------2---------------2---5------------

(2:55)

e-------------------------------------------------
B-------------------------------------------------
G-----------------7---9-11-4----------------------
D---------------4-7-7-9-11-4----------------------
A-2-2-2-2-2-2-2-4-5-7-7-9--2-2-2-2-2-2-2----------
E---------------2---5-----------------------------

(3:02)

e-------------------------------------------------
B---------------12--------------------------------
G---7---9-11-12-11-11-12--------------------------
D-4-7-7-9-11-12-9--11-12--------------------------
A-4-5-7-7-9--10----9--10--------------------------
E-2---5-------------------------------------------

First Guitar Solo (3:05) - 2 times

e-16-12-12-12-12-12-16-12-16-12-12-12-12-12-17-12-12-12-12-16-12-16-12-12-
B-------------------------------------------------------------------------
G-------------------------------------------------------------------------
D-------------------------------------------------------------------------
A-------------------------------------------------------------------------
E-------------------------------------------------------------------------

(3:08)

e-19-16----16-------------------------------------------------------------
B-------16----16----16----------------------------------------------------
G----------------16----16----16-------------------------------------------
D-------------------------18----18-----18-20-20h21h20-18------------------
A----------------------------------18--18---------------------------------
E-------------------------------------------------------------------------

(3:11)

e-------------------------------------------------------------------------
B-/14-17-16-14-16-14------------------------------------------------------
G--------------------16-18-16-14-16-14------------------------------------
D--------------------------------------16-18-16-14-16-14------------------
A-------------------------------------------------------------------------
E-------------------------------------------------------------------------

(3:13)
e-------------------------------------------------------------------------
B----------------------------14---14-16--17--17bf17-16----(17~)-----------
G----------14----14-16-14-16---16----------------------16-----------------
D-14-16-18----18----------------------------------------------------------
A-------------------------------------------------------------------------
E-------------------------------------------------------------------------

Rhythm Guitars (3:05)
e-------------------------------------------------------------------------
B-------------------------------------------------------------------------
G-6---------------6-9---6---------------6-9-------------------------------
D-6---6---7---4---6-9---6---6---7---4---6-9-2-----------------------------
A-4---6---7---4---4-7---4---6---7---4---4-7-2-----------------------------
E-----4---5---2-------------4---5---2-------0-----------------------------

Second Guitar Solo (3:37)

e-H.-------H.-----------17~\-------
B-12~~~~---12~~~~---10~------------
G----------------------------------
D----------------------------------
A----------------------------------
E----------------------------------

(3:54)

e-H.-----------17\-----------------
B-12~~~~--10~----------------------
G----------------------------------
D----------------------------------
A----------------------------------
E----------------------------------

(4:06)

e----------------------------------
B-12-12/15-------------------------
G----------12-12-12/14-------------
D----------------------------------
A----------------------------------
E----------------------------------

(4:11)

e----------------------------------
B-13-13-12-12----------------------
G--------------------/12-----------
D--------------14-14-----12-14~----
A----------------------------------
E----------------------------------

(4:19)

e-14-15------------------------19\-
B-------15~--20\-15-17-----A.H.----
G---------------------16-16-16-----
D----------------------------------
A----------------------------------
E----------------------------------

Piano Solo (4:31)

e-----------------------------------------------
B-----------------------------------------------
G-----2---4--------------2---4------------------
D-2---2---4---4--5---2---2---4---4--5--4-2------
A-2---0---2---4--5---2---0---2---4--5------5-4--
E-0-----------2--3---0-----------2--3-----------
 
Third Guitar Solo (4:55)

e------------------------------------------------3/5-3--------------------
B----3-5/7-5-3---------2/3-----2/3---3-5/7-5-3---------7-/5-3-------------
G-/4-----------6--2--6-------6-----4-----------6--------------------------
D-------------------------5-----------------------------------------------
A-------------------------------------------------------------------------
E-------------------------------------------------------------------------

(5:07)

e------------------------------------------------3/5-3--------------------
B----3-5/7-5-3---------2/3-----2/3---3-5/7-5-3---------7-/5-3-5-----------
G-/4-----------6--2--6-------6-----4-----------6--------------------------
D-------------------------5-----------------------------------------------
A-------------------------------------------------------------------------
E-------------------------------------------------------------------------

(5:19)

e-1/3----------3/5-7-8---14-15-14-12-14-12----12--------------------------
B-----3/5-7-8------------------------------15----15-14-15-14-12-14-12-----
G-------------------------------------------------------------------------
D-------------------------------------------------------------------------
A-------------------------------------------------------------------------
E-------------------------------------------------------------------------

(5:27)

e-------------------------------------------------------------------------
B---12--------------------------------------------------------------------
G-14--14-12-14-12-11-12-11---11-------------------------------14\---------
D--------------------------14--14-13-14-13----13-----------13-------------
A------------------------------------------15----15-14--12----------------
E-------------------------------------------------------------------------

(5:30)

e---------------------17--------------------------------------------------
B------------------------16-----------------------------------------------
G-------14--------14------------------------------------------------------
D----13----13--13---------------------------------------------------------
A-12----------------------------------------------------------------------
E-------------------------------------------------------------------------

Rhythm Guitars (4:55)

e-------------------------------------------------------------------------
B-------------------------------------------------------------------------
G-4-----------------------------------4-----------------------------------
D-4-----------4-----------5-----------4-----------7-----------5-----------
A-2-2-2-2-2-2-4-----------5-----------2-2-2-2-2-2-7-----------5-----------
E-------------2-2-2-2-2-2-3-3-3-3-3-3-------------5-5-5-5-5-5-3-3-3-3-3-3-

(5:07)

e-------------------------------------------------------------------------
B-------------------------------------------------------------------------
G-4-----------------------------------4-----------------------------------
D-4-----------4-----------5-----------4-----------7-----------5-----------
A-2-2-2-2-2-2-4-----------5-----------2-2-2-2-2-2-7-----------5-----------
E-------------2-2-2-2-2-2-3-3-3-3-3-3-------------5-5-5-5-5-5-3-3-3-3-3-3-

(5:19)

e-------------------------------------------------------------------------
B-------------------------------------------------------------------------
G-5---------4-------------------------------------------------------------
D-5------7--4-------------------------------------------------------------
A-3--2-3-7--2-------------------------------------------------------------
E--------5----------------------------------------------------------------

Chorus (5:30)
Intro  (5:59)


******************************************
TAB symbols:

A.H. = Artificial Harmonic
H. = Harmonic
p: pull-off
bh: bend a half step (half note)
bf: bend a full step (whole note)
/: rhythm slash - Strike the notated chord
~ = Vibrato
Composição de Hugo Mariutti
Colaboração e revisão:
  • Renato Mestre
34.461 exibições
    • ½ Tom
    • A
    • Bb
    • B
    • C
    • Db
    • D
    • Eb
    • E
    • F
    • F#
    • G
    • Ab
  • Adicionar à lista

    0 comentários

    Mostrar mais comentários

    Conseguiu tocar?

    0 Tocaram 0 Ainda não

    Grave um vídeo tocando Distant Thunder e mande pra gente!

    00:00 / 00:00
    outros vídeos desta música
    repetir qualidade Automático
    Outros vídeos desta música
    00:00 / 00:00
    Automático

    Cifra Club Pro

    Aproveite o Cifra Club com benefícios exclusivos e sem anúncios
    Cifra Club Pro
    Aproveite o Cifra Club com benefícios exclusivos e sem anúncios
    OK