Enviar cifraEntrar

Fairy Tale

Shaman

Cifra: Principal
exibições 310.246
Tom: G

E|--------------------------0--------------|-------------0-----------0-------------0----|
B|------------0--1-----3-----3------1--0---|---------1------------1------------1--------|
G|------2-----------0------------0---------|--2--2-------------2-----------2------------|
D|---------2-------------------------------|--------------------------------------------|
A|------0------- 3-------------------------|--0-------------0------------0--------------|
E|-----------------------------3-----------|--------------------------------------------|


E|-------------0------3/--5-----3--0----|----------0-----------0-------------0----|
B|--1-----3-----------------------------|------1------------1------------1--------|
G|-----2-----------0---------0----------|---2-------------2-----------2-----------|
D|--------------------------------------|-----------------------------------------|
A|--0----------3--------------------0---|-------------0------------0--------------|
E|--------------------------3-----------|-----------------------------------------|


E|--------------------------------------|-----------------------------------0---------0--|
B|--3-----1--0--1-----0---------------- |--0-----------------1--3------3---------3-------|
G|-----2------------2-----2-------------|--------2--0--2-------------2--------2----------|
D|--0-----------------------------------|-----0-----------3------0---------0-------------|
A|---------------0----------------------|------------------------------------------------|
E|--------------------------------------|--3-----------1---------------------------------|


E|----------------------0------------------|
B|---------0--1-----3-----3------1--0------|
G|---2-----------0------------0------------|
D|-------2---------------------------------|
A|---0------- 3----------------------------|
E|--------------------------3--------------|


Fim Da introdução e inicio da voz....
|

E|----------------------0----------------|--------------0-----------0-------------0----|
B|---------0--1-----3-----3------1--0----|----------1------------1------------1--------|
G|---2-----------0------------0----------|---2--2-------------2-----------2------------|
D|------2--------------------------------|---------------------------------------------|
A|---0------- 3--------------------------|---0------------0------------0---------------|
E|--------------------------3------------|---------------------------------------------|

"Fairy lady, who stands on the walls"


E|-------------0------3/--5-----3--0-----|----------0-----------0-------------0----|
B|--1-----3------------------------------|------1------------1------------1--------|
G|-----2-----------0---------0-----------|---2-------------2-----------2-----------|
D|---------------------------------------|-----------------------------------------|
A|--0----------3---------------------0---|-------------0------------0--------------|
E|--------------------------3------------|-----------------------------------------|

"Life is short and wait is long"


E|-------------------------------|-----------------------------------0---------0-|
B|--3-----1--0--1-----0------- --|--0-----------------1--3------3---------3------|
G|-----2------------2-----2------|--------2--0--2-------------2--------2---------|
D|--0----------------------------|-----0-----------3------0---------0------------|
A|---------------0---------------|-----------------------------------------------|
E|-------------------------------|--3-----------1--------------------------------|

"The stars, away, dim with the dawn..."


E|-----------------------0---------------|
B|----------0--1-----3-----3------1--0---|
G|---2------------0------------0---------|
D|-------2-------------------------------|
A|---0-------- 3-------------------------|
E|---------------------------3-----------|

"Fairy lady, who stands on the walls"


E|-----------------------0-----------------|--------------0-----------0------------0--|
B|----------0--1-----3-----3------1--0-----|----------1------------1------------1-----|
G|---2------------0------------0-----------|---2--2-------------2-----------2---------|
D|-------2---------------------------------|------------------------------------------|
A|---0-------- 3---------------------------|---0------------0------------0------------|
E|---------------------------3-------------|------------------------------------------|

"Your tale has only begun"


E|-------------0------3/--5-----3--0---|----------0-----------0-------------0----|
B|--1-----3----------------------------|------1------------1------------1--------|
G|-----2-----------0---------0---------|---2-------------2-----------2-----------|
D|-------------------------------------|-----------------------------------------|
A|--0----------3-------------------0---|-------------0------------0--------------|
E|--------------------------3----------|-----------------------------------------|

"It comes from far, the Nowhereland"


E|-------------------------------|-----------------------------------0---------0|
B|--3-----1--0--1-----0------- --|--0-----------------1--3-----3---------3------|
G|-----2------------2-----2------|--------2--0--2-------------2--------2--------|
D|--0----------------------------|-----0-----------3------0---------0-----------|
A|---------------0---------------|----------------------------------------------|
E|-------------------------------|--3-----------1-------------------------------|

"The wind is blowing a sound well known..."


E|-----------------------0------------------|
B|----------0--1-----3-----3----------------|
G|---2------------0-------------------------|
D|-------2----------------------------------|
A|---0-------- 3----------------------------|
E|---------------------------3~-------------|

"Fairy lady, your love... is long gone"

Am  G   Em          Am                   G   Em
Oh darling, hear my soul and heed my cry
Am             G    Em          F                 D
Cause all my crying may flood a river in my heart

C G   Bb      F
Oh,   life is good
C G   Bb      F
Oh,   life is good
C G   Bb      F
Oh,   life is good...
Ab              Bb
As good as you wish!"

Am      C           G           Am
Pretty lady, the horses are back
           C       G       Am
Bringing joy and happiness
     D       Am         G           F     D
But all of a sudden the horses are gone
                F             G         Am
It was only the sound of your heartbeat alone!

Am  G   Em          Am                   G   Em
Oh darling, hear my soul and heed my cry
Am             G    Em          F                 D
Cause all my crying may flood an ocean in my heart

C G   Bb      F
Oh,   life is good

C G   Bb      F
Oh,   life is good     (voz) e\-3-3-5-1-----      e\----------

C G   Bb      F             B\---------3-1- (3x) B\-3-4-3-1-3
Oh,   life is good...
Ab              Bb
As good as a kiss!"

(Solo flauta)


E|-------------------8----------------
B|-8--8-10-8--8-10-8---8-10-8-6-------
G|------------------------------9-7-5-


E|-------------------12-10-8----------
B|-8--8-10-8--8-10-8---------10-------


E|-------------------8----------------
B|-8--8-10-8--8-10-8---8-10-8-6-------
G|------------------------------9-7-5-


E|-11-10-8--13-11-10--15-13-15-16-18--


Ebm    Db   Bbm      Ebm               Db  Bbm
Oh my darling, now I cannot halt my cries
Ebm               Db     Bbm
My tears have drowned me
          B             Bb
And I refuse to realise

(mesmos acordes do verso anterior)
Ebm           Db    Bbm           Ebm                   Db   Bbm
What's left around me, it's all so strange, it's all so dark
Ebm       Db       Bbm
I'm all alone here
            B                  C#
To mend the pieces of my heart


E|--------------------------12--12-11-----------------
B|--12---------------------------------14--12---------
G|-------11--11-13--11h13-----------------------------
D|11--11----------------------------------------------
A|----------------------------------------------------
E|----------------------------------------------------


E|--------------------------12--14--14^16--14---------
B|--12------------------------------------------------
G|-------11--11-13--11h13-----------------------------
D|11--11----------------------------------------------
A|----------------------------------------------------
E|----------------------------------------------------


     *=ligadura

E|-19-*19-18-16*----------18----|-19-*19-18-16*----------18----
B|-----------------19----19-----|-----------------19----19-----
G|--------------------18--------|--------------------18--------
D|------------------------------|------------------------------
A|------------------------------|------------------------------
E|------------------------------|------------------------------


17--*17-16-14*-----------------------------------------------
---------------17--------------------------------------------
------------------16--14h13----------------------------------
----------------------------13-------------------------------
-------------------------------------------------------------


E|--------------------------------------------------------------------|
B|--------------------------------12-14-16-17-16-12-12~~~~~~~---------|
G|-14^16--16^14/13----------------------------------------------------|
D|-------------------14h13--------------------------------------------|
A|--------------------------------------------------------------------|
E|--------------------------------------------------------------------|


(Acústico Final)

G|-----------------------|----------------------|---------------0--2----|
D|------------------0-2- |--0-------------------|-------0--2------------|
A|------0----2--3--------|------3-2--0----------|--3--------------------|
E|-----------------------|----------------------|-----------------------|


E|---------------------|-------------------------|-----------------------|
B|---------------------|-------------------------|-----------------------|
G|--0------------------|-------------------------|-----------------------|
D|-----2------------2--|--0----------------------|-----------------------|
A|---------------------|-------3-2-3----2-0-2----|-----------------------|
E|---------------------|-------------------------|--3-2-0----3--0--------|


E|-----------------------|------------------------------------------||
B|-----------------------|------------------------------------------||
G|-----------------------|------------------------------------------||
D|------------------0-2--|--0----------0-2-0--------0-2-0-----------||
A|------0----2--3--------|------3-2-3--------3-2-3---------3-2-----0||
E|-----------------------|------------------------------------------||


Am       C             G          Am
Little lady, your tale has an end
            C         G          Am
For your love to the skies was sent
      D           Am         G                F       D
He's turned into sparks that shine with the stars...

          F             G         F
...And by night he will always be there
         G      F
For his lady to stare
     G              Am . . . .
And thus he's never died.
  • 1
  • 2
  • 3
  • 4
  • 5
  • 6
  • 7
  • 8
  • 9
  • 10
  • 11
  • 12

    0 comentários

      mostrar mais comentários

      Conseguiu tocar?

      43tocaram0ainda não

      Grave um vídeo tocando Fairy Tale e mande pra gente!

      00:00 / 00:00
      outros vídeos desta música
      repetirqualidadeautomática
      • automática
      Outro vídeos desta música
        00:00 / 00:00
        automática
        • automática
        fecharplay/pause subir/descer velocidade
          Acordes para:violão e guitarra
          acordes
          fechar
          OK