Cifra Club

Aprenda

Here I am

Shaman

Cifra: Principal (violão e guitarra)
Tom: G
Riff 1

Guitar 1 - 2 times

e-----------------------------------------------------------
B-----------------------------------------------------------
G-----------------------------------------------------------
D----------------------------------------------A.H.---------
A-7-------------------------------------8-7-5---7~----------
E-5-5-5-5-5-5-8-5-5-5-5-5-10-5-5-5-5-5-5------8-------------

e-----------------------------------------------------------
B-----------------------------------------------------------
G-----------------------------------------------------------
D---------------------------------------5p7p5---A.H.--------
A---------------------------------------------8--7~---------
E-5-5-5-5-5-5-8-5-5-5-5-5-10-5-5-5-5-5-5--------------------

e-----------------------------------------------------------
B-----------------------------------------------------------
G------------------------------------------5-/9--9----------
D------------------------------------------5-/9--9----------
A------------------------------------------3-/7--7----------
E-5-5-5-5-5-5-8-5-5-5-5-5-10-5-5-5-5-5-5--------------------

Guitar 2 (0:09)

e----------------------------------------------
B-5-3-5-6-5-3----------------------------------
G----------------------------------------------
D----------------------------------------------
A----------------------------------------------
E----------------------------------------------

Riff 2 (0:25)

Guitar 1 (with wah-wah on)

e-12-12bh-10--12-12bh-12-10-----9/10--10p12-10----------
B---------------------------13-----------------13-10-13-
G-------------------------------------------------------
D-------------------------------------------------------
A-------------------------------------------------------
E-------------------------------------------------------

(0:31)

e-12-12bh-10--12-12bh-12-10----12-10-12-----------------
B---------------------------13--------------------------
G-------------------------------------------------------
D-------------------------------------------------------
A-------------------------------------------------------
E-------------------------------------------------------

(0:43)

e-----------------------------------------10bh-10-8-10--
B-/12-12h13h12-10-12-12bh-------------8-10--------------
G---------------------------------7-9-------------------
D-------------------------------------------------------
A-------------------------------------------------------
E-------------------------------------------------------

Guitar 2 (0:25)

e------------------------------------------------------
B------------------------------------------------------
G-7------------7--5-------------5--3--2----------------
D-7--7--5--3---7--5--5-3-2---3--5--3--2--5--3--5-------
A-5--7--5--3---5--3--5-3-2---3--3--1--0--5--3--5-------
E----5--3--1---------3-1-0---1-----------3--1--3-------

(0:47)

e------------------------------------------------------
B------------------------------------------------------
G------------------------------------------------------
D-7--7-7--7--7-7--7--7-7--7--7-7---7-7--5-5--3-3-3-3-2-
A-7--7-7--7--7-7--7--7-7--7--7-7---7-7--5-5--3-3-3-3-2-
E-5--5-5--5--5-5--5--5-5--5--5-5---5-5--3-3--1-1-1-1-0-

Verse 1 (0:52)

Guitar 1

e-----------------------------------------------------------------
B-----------------------------------------------------------------
G------------------5--7--7-7---------------------------5-4-7------
D-7--7--7--5-5--7--5--7--7-7--3-5-3-5--7--7-7--7--7-7--5-4-7-7----
A-7--7--7--5-5--7--3--5--5-5--3-5-3-5--7--7-7--7--7-7--3-2-5-7----
E-5--5--5--3-3--5-------------1-3-1-3--5--5-5--5--5-5--------5----

e-----------------------------------------------------------------
B-----------------------------------------------------------------
G------------------5--7--7-7--------------------------------------
D-7--7--7--5-5--7--5--7--7-7--3-5-3-5--5--5-5--5--5-5--2----------
A-7--7--7--5-5--7--3--5--5-5--3-5-3-5--5--5-5--5--5-5--2----------
E-5--5--5--3-3--5-------------1-3-1-3--3--3-3--3--3-3--0----------

Guitar 2 (0:57)

e----------------------12----12-----------
B-------------12-13-15----15----15--------
G-------12-14-----------------------------
D-12-14---------------------------12------
A-----------------------------------------
E-----------------------------------------

(1:00)

e-8-8-8-10-10-10-8-8-8-10-10-10-12--10-8--
B-----------------------------------------
G-----------------------------------------
D-----------------------------------------
A-----------------------------------------
E-----------------------------------------

(1:09)

e-12-10------------------------------------
B-------13-12-10----9/10-------------------
G----------------12------------------------
D------------------------------------------
A------------------------------------------
E------------------------------------------

(1:12)

e----------------------------------------------12-12-12-12---
B-10-10-10-12-12-12-10-10-10-12-12-12-13-13-13---------------
G------------------------------------------------------------
D------------------------------------------------------------
A------------------------------------------------------------
E------------------------------------------------------------

Verse 2 (1:17)

e-12-12-12-12-12-12-12-12-12---------------------------------
B-----------------------------12-12-12-12-12-12-12-12-12-----
G------------------------------------------------------------
D------------------------------------------------------------
A------------------------------------------------------------
E------------------------------------------------------------

(1:23)

e-12-12-12-12-12-12-12-12-12--16-14-12-----------------------
B------------------------------------------------------------
G------------------------------------------------------------
D------------------------------------------------------------
A------------------------------------------------------------
E------------------------------------------------------------

Riff 3 (1:29)

e------------------------------------------------------------
B------------------------------------------------------------
G-------------------------------------------------------5----
D----------------------------------------------A.H.-----5----
A-7-------------------------------------8-7-5---7~------3----
E-5-5-5-5-5-5-8-5-5-5-5-5-10-5-5-5-5-5-5------8----5-5-5-----

Verse 1 (1:36)
Verse 2 (2:01)

Bridge (2:13)

e---------------------------------------------------------------
B---------------------------------------------------------------
G---------------------------------------------------------------
D----------5-4-------------------2-3-2--3x-3x-3x-5X-5X-5X-5X----
A-------5-----7-5--8-7--5-7-8-5--2-3-2--3x-3x-3x-5X-5X-5X-5X----
E-5-7-8--------------------------0-1-0--1x-1x-1x-3X-3X-3X-3X----


Chorus (2:29)

e----------------------------------------------------------
B----------------------------------------------------------
G-5-----3-----------3---8--5--3-------------------8--------
D-5--3--3--5--6--3--3---8--5--3------6------------8--------
A-3--3--1--5--6--3--1---6--3--1--2---6----2-------6--------
E----1-----3--4--1-----------------3-4------3-4-6----------

Riff 4 (2:56)

e-----------------------------------------------------------
B-----------------------------------------------------------
G-----------------------------------------------------------
D----------------------------------------------A.H.---------
A-5-------------------------------------6-5-3---5~----------
E-3-3-3-3-3-3-6-3-3-3-3-3-8-3-3-3-3-3-3-------6-------------

(3:00)

e-----------------------------------------------------------
B-----------------------------------------------------------
G-----------------------------------------------------------
D---------------------------------------------10\---------
A-------------------------------------6-5-3---10\-----------
E-3-3-3-3-3-6-3-3-3-3-3-8-3-3-3-3-3-3-------6--8\-----------

Riff 5 (3:26) - 2 times

e--------------------------------------------
B--------------------------------------------
G------------5-7----------------------4------
D-----5-6----------5-5/6------5-6-----4------
A-3-3--3--3-3-3--3--3-----3-3--3--3-3-2------
E--------------------------------------------

Solo (3:49)

e----------------------------------------------------------16/18bh-16-15--
B-12bh~--13--11----------------11bh-----/16-15-16-15----------------------
G----------12--12-11-12-11-10-------12---------------17-15----------------
D----------------------------13-------------------------------------------
A-------------------------------------------------------------------------
E-------------------------------------------------------------------------

(3:53)

e-16-15-------15--15p16p15-13-15--15-16-15-13-15-13----13-----------------
B-------18-16---------------------------------------16----16-15-16-15-----
G-------------------------------------------------------------------------
D-------------------------------------------------------------------------
A-------------------------------------------------------------------------
E-------------------------------------------------------------------------

(3:56)

e-------------------------------------------------------------------------
B-13-15-13----13----------------------------------------------------------
G----------15----15-13-15-13-12-13-12----12-------12----------------------
D-------------------------------------15----15-13-------------------------
A-------------------------------------------------------------------------
E-------------------------------------------------------------------------

(3:58)

e-16--16-15------------------------------------12-------------------------
B-------------16-15----15-13-------------13-15----------------------------
G---13-----13-------13-------13-15-13-12----------------------------------
D-------------------------------------------------------------------------
A-------------------------------------------------------------------------
E-------------------------------------------------------------------------

(4:01)

e-12-0-10-0-8-0-7-0-3-0-5-0-7---8/10-8-7-8-7------------------------------
B--------------------------------------------8-8bh------------------------
G-------------------------------------------------------------------------
D-------------------------------------------------------------------------
A-------------------------------------------------------------------------
E-------------------------------------------------------------------------

e--------------7---7bh7--5-4-5-5/7--7-7-7-8-8-8-10-10-10-5-5/10\----------
B-------A.H.--------------------------------------------------------------
G---4---4bh4-----5--------------------------------------------------------
D-2---2-----2-------------------------------------------------------------
A------------3------------------------------------------------------------
E-------------------------------------------------------------------------

Rhythm Guitars of the Solo Part (3:49)

e----------------------------------------------------------
B----------------------------------------------------------
G------------------8---------------------------------------
D--6--8-10--8-6--8-8----6--8-10--8-6--8-5------------------
A--6--8-10--8-6--8-6----6--8-10--8-6--8-5------------------
E--4--6-8---6-4--6------4--6-8---6-4--6-3------------------

(4:01)

e-----------------------------------------------------------
B-----------------------------------------------------------
G----------4-5--7-9-----------------------------------------
D--3--5-7--4-5--7-9--3--5-7--2------------------------------
A--3--5-7--2-3--5-7--3--5-7--2------------------------------
E--1--3-5------------1--3-5--0------------------------------

Verse 3 (04:14) - 2 times

e----------------------------------------------------------
B----------------------------------------------------------
G----------------------------------------------------------
D----------------------------------------------------------
A------------------0-0-0-0--2/3----------------------------
E-1-1-1-1--3-3-3-3---------------0-0-0-0-------------------

Chorus 2 (4:39)

e----------------------------------------------------------
B----------------------------------------------------------
G-5-----3-----------3---8--5--3----------------------------
D-5--3--3--5--6--3--3---8--5--3------6---------------------
A-3--3--1--5--6--3--1---6--3--1--2---6----2----------------
E----1-----3--4--1-----------------3-4------3-4-6----------

(5:04)

e----------------------------------------------------------
B----------------------------------------------------------
G-5-----3--------------------------------------------------
D-5--3--3--5-----6-----------------6-----------------------
A-3--3--1--5-2---6-----------------6-----------------------
E----1-----3---3-4--4--4--4--4--4--4--4--4--4--4--4--4-----

Ending (5:23)

e----------------3-----------------------------------------
B------------4-6-------------------------------------------
G--------3-4-------8--5--3--4------------------------------
D---4/5-3----------8--5--3--4---6--8-----------------------
A-3----------------6--3--1--2---6--8-----------------------
E----------------------------3--4--6-----------------------

Ending 2 (5:38)

e-----------------------------------------------------------
B-----------------------------------------------------------
G----------------------------------------------------A.H.---
D-5---------------------------------------6---6-5-3---5~----
A-3-3-3-3-3-3-6-3-3-3-3-3-8-3-3-3-3-3-3---------------------
E-----------------------------------------------------------

e-----------------------------------------------------------
B-----------------------------------------------------------
G---------------------------------------3p5p3----A.H.-------
D---------------------------------------------6---5~--------
A-3-3-3-3-3-3-6-3-3-3-3-3-8-3-3-3-3-3-3---------------------
E-----------------------------------------------------------

e-----------------------------------------------------------
B-----------------------------------------------------------
G------------------------------------------8--------5-5-----
D------------------------------------------8---5----5-5-----
A-3-3-3-3-3-3-6-3-3-3-3-3-8-3-3-3-3-3-3----6---5----3-3-----
E----------------------------------------------3------------


******************************************
TAB symbols:

A.H. = Artificial Harmonic
p: pull-off
bh: bend a half step (half note)
bf: bend a full step (whole note)
/: rhythm slash - Strike the notated chord
~ = Vibrato
Composição de Andre Matos / Shaman
Colaboração e revisão:
  • Renato Mestre
36.570 exibições
    • ½ Tom
    • A
    • Bb
    • B
    • C
    • Db
    • D
    • Eb
    • E
    • F
    • F#
    • G
    • Ab
  • Adicionar à lista

    0 comentários

    Mostrar mais comentários

    Conseguiu tocar?

    0 Tocaram 0 Ainda não

    Grave um vídeo tocando Here I am e mande pra gente!

    00:00 / 00:00
    outros vídeos desta música
    repetir qualidade Automático
    Outros vídeos desta música
    00:00 / 00:00
    Automático

    Cifra Club Pro

    Aproveite o Cifra Club com benefícios exclusivos e sem anúncios
    Cifra Club Pro
    Aproveite o Cifra Club com benefícios exclusivos e sem anúncios
    OK