Cifra Club

Aprenda

In The Night

Shaman

Cifra: Principal (violão e guitarra)
Tom: A#
Intro:

|---------------------------------|
|---------------------------------|
|---------------------------------| 7X
|---------------------------------|
|-3p0-0-0-0-0-3p0-0-0-0-0-3p0-0-0-|
|---------------------------------|

|---------------------------------|
|---------------------------------|
|---------------------------------| 2X
|---------------------------------|
|-6p3-3-3-3-3-6p3-3-3-3-3-6p3-3-3-|
|---------------------------------|


|---------------------------------|
|---------------------------------|
|---------------------------------| 2X 
|---------------------------------|
|-7-0-0-6-0-0-7-0-0-6-0-0-6-7-0-0-|
|---------------------------------|

|---------------------------------|
|---------------------------------|
|---------------------------------| 7X
|---------------------------------|
|-3p0-0-0-0-0-3p0-0-0-0-0-3p0-0-0-|
|---------------------------------|


Verse: (igual ao primeiro pedaço da intro)

In the night, realm of dreams
Wildness creeps, descending  D|-4/5-4---|
                             A|-------5-| Lick somente nessa frase do verso

All so quiet, all so still
Prowling silence in the night

In the heights, on the peaks
Rainy clouds surrounding
There are cities made of light
Ripping though the black of night

Antes do Chorus: |---|
                 |---|
                 |-3-|
                 |-3-|
                 |-1-|
                 |---|

Chorus:

All becomes so real
Making dreams come true
To release your mind and free your soul

|---------------------------------------------|
|---------------------------------------------|
|-3-----3p2-0-3p2-0-3-----3p2-0-3p2-0-3---3---|
|-3-5-3-------------3-5-3-------------3-5-3-3-|
|-1-5-3-------------1-5-3-------------1-5-1-3-|
|---3-1---------------3-1---------------3---1-|


Verse:

 A#5       G#5
Fly away from this land
      F#5             F5                
Made of old scraps of sorrow
 A#5         G#5
No way back, free to ride
 F#5          F5
Hesitation... sacrifice
 A5         G5
Mesmerize, hold on tight
 F5                  E5
For the heavens bend down
 A5                G5
There's a tunnel, long and winding
 F5            E5
Leading on towards the light

Chorus:

All becomes so real
Making dreams come true
To release your mind and free your...

|---------------------------------------------|
|---------------------------------------------|
|-3-----3p2-0-3p2-0-3-----3p2-0-3p2-0-3---3---|
|-3-5-3-------------3-5-3-------------3-5-3-3-|
|-1-5-3-------------1-5-3-------------1-5-1-3-|
|---3-1---------------3-1---------------3---1-|

...Sooooul

|-----------------|
|-----------------|
|-----------------|
|-5-5-5-5-5-5-5-5-|
|-5-5-5-5-5-5-5-5-|
|-3-3-3-3-3-3-3-3-|
 |______PM_______|

 A#5                G#5        G5
Free yourself from misery, let go
 A#5
Hear my voice and
 G#5                
I will guide your...|-----------------|
                    |-----------------|
                    |-5-5-5-5-5-5-5-5-|
                    |-5-5-5-5-5-5-5-5-|
                    |-5-5-5-5-5-5-5-5-|
                    |-3-3-3-3-3-3-3-3-|
                      |______PM______|

....Roooaming!

|-----------------------------------------------|
|-----------------------------------------------|
|-----------------------------------------------|
|-----------AH-------------AH--3/5-3---------5~-|
|---0-1~---0-1~---0-1~---0-1~--------6-8-6-5-5~-|
|-3~-----3~-----3~-----3~--------------------3~-|

Bridge: With effects, keyboard... (no Guitar)

Solo:

|-----------------------------------------------|
|-15~-15-17-18---------------13-15-17b18-17b18~-|
|-------------14~~------14-15-------------------|
|------------------15-17------------------------|
|-----------------------------------------------|
|-----------------------------------------------|

|-------20-17~----17-----------17---20b22~~-|
|-15-17---------18----18-20--18--18---------|
|-------------19----19-----19---------------|
|-------------------------------------------|
|-------------------------------------------|
|-------------------------------------------|

|-20-18-17-18--------------------------------------|
|------------18-18b19----171514--------------------|
|--------------------17~-------171514-151412-------|
|-------------------------------------------151412-|
|--------------------------------------------------|
|--------------------------------------------------|

|----------------------------------------------|
|-15~~-15p13-----------------------------------|
|-----------14b15rb14b15rb14b15rb14b15rb14~~~~-|
|----------------------------------------------|
|----------------------------------------------|
|----------------------------------------------|

 G5   A#5                G#5      G5  
Oh, free yourself from misery let go
 A#5               G#5                G5
Hear my voice and I will light your road
 A#5               G#5                G5
Leave behind the world you know, and float
 A#5               G#5              G5   
Hear my voice and I will guide your... 

...Roaming!

|-----------------------------------------------|
|-----------------------------------------------|
|-----------------------------------------------|
|-----------AH-------------AH--3/5-3---------5~-|
|---0-1~---0-1~---0-1~---0-1~--------6-8-6-5-5~-|
|-3~-----3~-----3~-----3~--------------------3~-|

End!
Composição de Andre Matos
Colaboração e revisão:
  • Leandro Angelis
6.219 exibições
    • ½ Tom
    • A
    • Bb
    • B
    • C
    • Db
    • D
    • Eb
    • E
    • F
    • F#
    • G
    • Ab
  • Adicionar à lista

    0 comentários

    Mostrar mais comentários

    Conseguiu tocar?

    0 Tocaram 0 Ainda não

    Grave um vídeo tocando In The Night e mande pra gente!

    00:00 / 00:00
    outros vídeos desta música
    repetir qualidade Automático
    Outros vídeos desta música
    00:00 / 00:00
    Automático

    Cifra Club Pro

    Aproveite o Cifra Club com benefícios exclusivos e sem anúncios
    Cifra Club Pro
    Aproveite o Cifra Club com benefícios exclusivos e sem anúncios
    OK