Cifra Club

Aprenda

Inferno Veil

Shaman

Cifra: Principal (violão e guitarra)
Tom: A#
E|-----------------------------------------------------------|
B|-------------------------------------------7-8-7-----------|
G|---------7-8-7---------5-7-5---------7-8-7-------7-8-7-5-7-| (2x)
D|-0-0-0-0---------0-0-0---------0-0-0-----------------------|
A|-----------------------------------------------------------|
D|-----------------------------------------------------------|
     Bb5                          F5
E|-----------------------------------------------------------|
B|------------------------------------------7-8-7------------|
G|---------7-8-7--------5-7-5---------7-8-7-------7-8-7-5-7--|
D|-8-8-8-8--------8-8-8--------------------------------------|
A|------------------------------8-8-8------------------------|
D|-----------------------------------------------------------|
     Eb5
E|-------------------------|
B|-------------------------|
G|-------7-8-7-------5-7-5-|
D|-------------------------|
A|-6-6-6-------6-6-6-------|
D|-------------------------|

E|-----------------------------|-------------------------------|
B|-----------------------------|-------------------------------|
G|*----------------------------|-------------------------------|
D|*----------------------------|-------------------------------|
A|---0-0--0--0--0-5-6--3-5--0--|------------------5-6--3-5--0--|
D|---0-0--0--0--0--------------|--0-0-0-0-0-0-0-0--------------|

E|-------------------------------|--------------------------------||
B|-------------------------------|--------------------------------||
G|-------------------------------|-------------------------------*||
D|-------------------------------|-------------------------------*||
A|------------------5-6--3-5--0--|------------------5-6--3-5--0---||
D|--0-0-0-0-0-0-0-0--------------|--0-0-0-0-0-0-0-0---------------||

E|----|-------------------------------------|
B|----|-------------------------------------|
G|-7~-|---------------(4x)------------------|
D|-7~-|-------------------------------------|
A|-5~-|-x\---3-5-6-3-5-6-3-5-3-5-6-3-5-6----|
D|----|----------------------------------6~-|

Composição de Fernando Quesada / Léo Mancini / Ricardo Confessori / Thiago Bianchi
Colaboração e revisão:
  • Thyerrí Cruz
2.331 exibições
    • ½ Tom
    • A
    • Bb
    • B
    • C
    • Db
    • D
    • Eb
    • E
    • F
    • F#
    • G
    • Ab
  • Adicionar à lista

    0 comentários

    Mostrar mais comentários

    Conseguiu tocar?

    2 Tocaram 0 Ainda não

    Grave um vídeo tocando Inferno Veil e mande pra gente!

    00:00 / 00:00
    outros vídeos desta música
    repetir qualidade Automático
    Outros vídeos desta música
    00:00 / 00:00
    Automático

    Cifra Club Pro

    Aproveite o Cifra Club com benefícios exclusivos e sem anúncios
    Cifra Club Pro
    Aproveite o Cifra Club com benefícios exclusivos e sem anúncios
    OK