Cifra Club

Aprenda

Innocence

Shaman

Cifra: Principal (violão e guitarra)
Tom: F
Dedilhado Inicial
                       Gm                                     
E||--1--------------|----------------------|----------------------|
B||-------4----3----|--3---------1----3----|-------1----3---------|
G||-----------------|--3-----3-------------|--3--------------3----|
D||--3---------3----|----------------------|----------------------|
A||-----------------|----------------------|----------------------|
E||-----------------|----------------------|----------------------|

-------1--------------|----------------------|----------------------|
--1---------4----3----|--3---------1----3----|-------1----3---------|
----------------------|--3----3--------------|--3--------------3----|
-------3---------3----|----------------------|----------------------|
----------------------|----------------------|----------------------|
----------------------|----------------------|----------------------|
                                                                     
-------1--------------|----------------------|----------------------|
--1---------4----3----|--3---------1----3----|-------1----3---------|
----------------------|--3----3--------------|--3--------------3----|
-------3--------------|----------------------|----------------------|
----------------------|----------------------|----------------------|
----------------------|----------------------|----------------------|

                         Bb                                          
----------------------|---------------------|----------------------|
--1--------------1----|-----------1----3----|-------1----3---------|
-------2----3---------|--3------------------|--3--------------3----|
----------------------|---------------------|----------------------|
-------0--------------|--1------------------|----------------------|
----------------------|---------------------|----------------------|

                         Gm                
-------1--------------|-------|
--1---------4----3----|--3----|
----------------------|--3----|
-------3--------------|-------|
----------------------|-------|
----------------------|-------|


Dedilhado acompanha o Gm e Bb

Intro
Dedilhado (Gm e Bb)

Gm
I woke today 
Gm
Inside the train of dreams 
Gm                                Bb
The rain poured down in black and white 
Gm
I stood and stared 
Gm
The rest of what remains 
Gm                      Bb
My own world crumbling around 
G#
I held my tears 
Cm                  Bb
One day comes after another 

Gm
The falling rain 
Gm
Carassed my skin again 
Gm                       Bb
Just let it flow to wash away 
Gm
The time gone by
Gm 
Feeling long denyed
Gm                           Bb
My heart is no more bound in vain 

G#
And now it's clear
Cm                  Bb 
One day leads on to another 
G#
I dried my tears 
Cm                      Bb        A
There's so much else to discover somewhere 

           Dm
I hear the sound 
            A
Of thousand voices
              Bb 
I lost my innocence
          F     Dm 
I'm on my way
                C   A  
I crossed the desert
                 Dm 
To rescue what I sent
          Bb  A    Dm 
Out of my heart away

Solo

Dm (3 tempos) 
F (1 tempo)
(2x)

e|-------------------------------------------|
B|--15-17-18-17h18~-17h18p17p15--15------AH--|
G|-----------------------------17--17b18-17--|
D|-------------------------------------------|
A|-------------------------------------------|
E|-------------------------------------------|

e|--------------------------------------------|
B|--------------------------------------------|
G|--------------------------------------------|
D|------15------------------------------------|
A|17-17-17-17-15-17-15----------------A.H.----|
E|---------------------17-15-17-15-17-10------|

e|--------------------------------18h20--20fb22-22~-|
B|--15-17-18-17h18-17-15-17b18--15------------------|
G|--------------------------------------------------|
D|--------------------------------------------------|
A|--------------------------------------------------|
E|--------------------------------------------------|

e|-------------------------------------------|
B|--------------------------------A.H--------|
G|--17b18p17p15----------------14-15---------|
D|-------------17-15h17p15--15-------17/19---|
A|------------------------17-----------------|
E|-------------------------------------------|

e|--------------------------------------------------------------------------|
B|-------------18-----------------------------------------------------------|
G|--14-15---------17-------------A.H.---------------------------------------|
D|--------17/19-----17b18p17p15--15~--15-17-15h17p15------------------------|
A|-----------------------------17-------------------15h17p15----------------|
E|----------------------------------------------------------15h17p15h17-13~-|

G#
Now it's clear 
Cm                  Bb
One day leads on to another 
G#
Go find our fears 
Cm                          Bb   A
I find the way back to each other


           Dm
I hear the sound 
            A
Of thousand voices
              Bb 
I lost my innocence
          F     Dm 
I'm on my way
                C   A  
I crossed the desert
                 Dm 
To rescue what I sent
          Bb   A    
Out of my heart

           Dm
I hear the sound 
            A
Of thousand voices
              Bb 
I lost my innocence
          F     Dm 
I'm on my way
                C   A  
I crossed the desert
                 Dm 
To rescue what I sent
          Bb  A  Dm 
Out of my heart away

Dm Bb A Dm

Lick Final

e|---------------------------|
B|--18~~-18/17-17~-14-14h15~-|
G|---------------------------|
D|---------------------------|
A|---------------------------|
E|---------------------------|
Composição de Andre Matos
Colaboração e revisão:
  • Abmar Barros
58.218 exibições
    • ½ Tom
    • A
    • Bb
    • B
    • C
    • Db
    • D
    • Eb
    • E
    • F
    • F#
    • G
    • Ab
  • Adicionar à lista

    0 comentários

    Mostrar mais comentários

    Conseguiu tocar?

    2 Tocaram 0 Ainda não

    Grave um vídeo tocando Innocence e mande pra gente!

    00:00 / 00:00
    outros vídeos desta música
    repetir qualidade Automático
    Outros vídeos desta música
    00:00 / 00:00
    Automático

    Cifra Club Pro

    Aproveite o Cifra Club com benefícios exclusivos e sem anúncios
    Cifra Club Pro
    Aproveite o Cifra Club com benefícios exclusivos e sem anúncios
    OK