Cifra Club

Aprenda

Pride

Shaman

Cifra: Principal (violão e guitarra)
Tom: B
Intro (depois do solo)
------------------------------
------------------------------
--7-x-7-x-------7-x-7-x-------               4X
--7-x-7-x-------7-x-7-x-------
--5-x-5-x-------5-x-5-x-------
----------7p6p5---------7p6p5-

Somedays I wish run away
Fall in the love and stray,
My life is turning,turning

But when there's nowhere else to go
Pray to the Lord, my soul,
My heart is burning,burning

-----------------------------------------------------------------------
-----------------------------------------------------------------------
-7-x-7-7-x-7-x-7-x-7-7-------7-x-7-7-x-7-x-7-x-7-7-x-7-x-5--4-xxx-5--4-                 2X
-7-x-7-7-x-7-x-7-x-7-7-------7-x-7-7-x-7-x-7-x-7-7-x-7-x-5--4-xxx-5--4-
-5-x-5-5-x-5-x-5-x-5-5-------5-x-5-5-x-5-x-5-x-5-5-x-5-x-3--2-xxx-3--2-
-----------------------7p6p5-------------------------------------------

You betray yourself
When you think
That you're someone else
---------------------------------------------
---------------------------------------------
------5-------7--7---------5-------5---------
--7---5---5---7--7-----7---5---5---5---------
--7---3---5---5--5-----7---3---5---3---------
--5-------3------------5-------3-------------

Someday I'll understand my dreams
So deep inside
And them I'm free again to leave
The pain behind
-------------------------------------------------------
-------------------------------------------------------
-----5-----7-----------5--------5-----7-----------7----
--7--5--5--7-----5--3--5-----7--5--5--7-----5--7--7----
--7--3--5--5-----5--3--3-----7--3--5--5-----5--7--5----
--5-----3--------3--1--------5-----3--------3--5-------

Right here in my hand
Feelings I can't hide
Someday I'm gone away with nothing
But my pride

----------------------------------------
----------------------------------------
-----5-----7--5-----------7--------5----
--7--5--5--7--5--7--5--7--7--3--5--5----
--7--3--5--5--3--7--5--7--5--3--5--3----
--5-----3--------5--3--5-----1--3-------

------------------------------
------------------------------
--7-x-7-x-------7-x-7-x-------               4X
--7-x-7-x-------7-x-7-x-------
--5-x-5-x-------5-x-5-x-------
----------7p6p5---------7p6p5-

Somedays I wish run away
Fall in the love and stray,
My life is turning,turning

But when there's nowhere else to go
Pray to the Lord, my soul,
My heart is burning,burning

-----------------------------------------------------------------------
-----------------------------------------------------------------------
-7-x-7-7-x-7-x-7-x-7-7-------7-x-7-7-x-7-x-7-x-7-7-x-7-x-5--4-xxx-5--4-                 2X
-7-x-7-7-x-7-x-7-x-7-7-------7-x-7-7-x-7-x-7-x-7-7-x-7-x-5--4-xxx-5--4-
-5-x-5-5-x-5-x-5-x-5-5-------5-x-5-5-x-5-x-5-x-5-5-x-5-x-3--2-xxx-3--2-
-----------------------7p6p5-------------------------------------------

You forgive youself
When you know
That you're someone else

---------------------------------------------
---------------------------------------------
------5-------7--7---------5-------5---------
--7---5---5---7--7-----7---5---5---5---------
--7---3---5---5--5-----7---3---5---3---------
--5-------3------------5-------3-------------

Someday I'll understand my dreams
So deep inside
And them I'm free again to leave
The pain behind
-------------------------------------------------------
-------------------------------------------------------
-----5-----7-----------5--------5-----7-----------7----
--7--5--5--7-----5--3--5-----7--5--5--7-----5--7--7----
--7--3--5--5-----5--3--3-----7--3--5--5-----5--7--5----
--5-----3--------3--1--------5-----3--------3--5-------

Right here in my hand
Feelings I can't hide
Someday I'm gone away with nothing
But my pride

----------------------------------------
----------------------------------------
-----5-----7--5-----------7--------5----
--7--5--5--7--5--7--5--7--7--3--5--5----
--7--3--5--5--3--7--5--7--5--3--5--3----
--5-----3--------5--3--5-----1--3-------

Dai vem um riff de baxo e um solo de guita, a base do solo é:

-----------------------------------------------------------------------
-----------------------------------------------------------------------
-7-x-7-7-x-7-x-7-x-7-7-------7-x-7-7-x-7-x-7-x-7-7-x-7-x-5--4-xxx-5--4-                 2X
-7-x-7-7-x-7-x-7-x-7-7-------7-x-7-7-x-7-x-7-x-7-7-x-7-x-5--4-xxx-5--4-
-5-x-5-5-x-5-x-5-x-5-5-------5-x-5-5-x-5-x-5-x-5-5-x-5-x-3--2-xxx-3--2-
-----------------------7p6p5-------------------------------------------

You forgive youself
When you know
That you're someone else

---------------------------------------------
---------------------------------------------
------5-------7--7---------5-------5---------
--7---5---5---7--7-----7---5---5---5---------
--7---3---5---5--5-----7---3---5---3---------
--5-------3------------5-------3-------------

Someday I'll understand my dreams
So deep inside
And them I'm free again to leave
The pain behind
-------------------------------------------------------
-------------------------------------------------------
-----5-----7-----------5--------5-----7-----------7----
--7--5--5--7-----5--3--5-----7--5--5--7-----5--7--7----
--7--3--5--5-----5--3--3-----7--3--5--5-----5--7--5----
--5-----3--------3--1--------5-----3--------3--5-------

Right here in my hand
Feelings I can't hide
Someday I'm gone away with nothing
But my pride

----------------------------------------
----------------------------------------
-----5-----7--5-----------7--------5----
--7--5--5--7--5--7--5--7--7--3--5--5----
--7--3--5--5--3--7--5--7--5--3--5--3----
--5-----3--------5--3--5-----1--3-------

Final:

-------------------------------------
-------------------------------------
-----5-----7--------7----------------
--7--5--5--7--5--7--7----------------
--7--3--5--5--5--7--5----------------
--5-----3-----3--5-------------------



Title:  Pride (solos)
SubTitle: By Lex Rules (alexrodrigop@hotmail.com)
Artist: Shaman
Tempo = 145
Electric Guitar

Legend
L - tied note
x - dead note
h - hammer on/pull off
B|- bend
s - slide
~ - vibrato
G|- ghost note
> - accentuated note
t - trill
M - palm mute
. - staccato
P - popping (bass)
S - slapping (bass)
+ - tapping
W - wide vibrato
< - fade in
w - whammy bar
= - tremolo picking
v - brush up
^ - brush down
V - pick stroke up
n - pick stroke down


SOLO 01

E|-----------------------------------------------------------------------------
B|--13b---------------------------------13b---------------------------------13-
G|-----------------------------------------------------------------------------
D|-----------------------------------------------------------------------------
A|-----------------------------------------------------------------------------
E|-----------------------------------------------------------------------------


10---------------------|-----------------------------------------10----17h--|
------13----10---------|--13b---------------13b-----------------------------|
-----------------------|----------------------------------------------------|
-----------------------|----------------------------------------------------|
-----------------------|----------------------------------------------------|
-----------------------|----------------------------------------------------|


--15h---14h---10h---17-17h---15h---14h---10----15h---14h---12h---10----15-15h---
--------------------------------------------------------------------------------
--------------------------------------------------------------------------------
--------------------------------------------------------------------------------
--------------------------------------------------------------------------------
--------------------------------------------------------------------------------


14h---12h---10------|
--------------------|
--------------------|
--------------------|
--------------------|
--------------------|


--------------------------------------------------------------------------------
--13-12h13h---12----------12h---13h---15h13h12----------------------------10----
--------------------14----------------------------13----14----10----12----------
--------------------------------------------------------------------------------
--------------------------------------------------------------------------------
--------------------------------------------------------------------------------


--------------------|
13-12----10---------|
--------------------|
--------------------|
--------------------|
--------------------|


--------------------------------------------------------------------------------
--12b---------------------------------12b---------------------------------------
--------------------------------------------------------------------------------
--------------------------------------------------------------------------9h-10h
--------------------------------------------------------------------------------
--------------------------------------------------------------------------------


--------------------|
--------------------|
--------------------|
9h-10h9h-10h9h-10---|
--------------------|
--------------------|


--------------------------------------------------------------------------------
--------------------------------------------------------------------------12h13h
--11h12h11h12h11h12h11h12-------------------------11h12h11h12h11h12h11h12-------
--------------------------9h-10h9h-10h9h-10h9h-10-------------------------------
--------------------------------------------------------------------------------
--------------------------------------------------------------------------------


--------------------|
12h13h12h13h12h13---|
--------------------|
--------------------|
--------------------|
--------------------|


--------------------------------------------------14h15h14h15h14h15h14h15-------
--------------------------12h13h12h13h12h13h12h13-------------------------12h13h
--11h12h11h12h11h12h11h12-------------------------------------------------------
--------------------------------------------------------------------------------
--------------------------------------------------------------------------------
--------------------------------------------------------------------------------


--------------------|
12h13h12h13h12h13---|
--------------------|
--------------------|
--------------------|
--------------------|


--14h15h14h15h14h15h14h15-17b---------------------17b---------------------------
--------------------------------------------------------------------------------
--------------------------------------------------------------------------------
--------------------------------------------------------------------------------
--------------------------------------------------------------------------------
--------------------------------------------------------------------------------




SOLO 02
--------------------|--------------------------------10------------------|
--------------------|--13b---------------13b------------13-10------------|
--------------------|-----------------------------------------12-10------|
--------------------|-----------------------------------------------12---|
--------------------|----------------------------------------------------|
--------------------|----------------------------------------------------|


--------------------------------------20b---------------------------------------
--20b---------------------------------------------------------------------------
--------------------------------------------------------------------------------
--------------------------------------------------------------------------------
--------------------------------------------------------------------------------
--------------------------------------------------------------------------------


--------------------------------------------------------------------------------
--------------------------------------------------------------------------------
------21b---------------------19----------------------------19-------21-------19
------------------------------------------21------------------------------------
--------------------------------------------------------------------------------
--------------------------------------------------------------------------------


------------------------------------|
------------------------------------|
L-----------------------------------|
------------------------------------|
------------------------------------|
------------------------------------|


--------------------------------------------------------------------------------
-----------14-------0--------13-------0--------12-------0--------11-------0-----
--19----------------------------------------------------------------------------
--------------------------------------------------------------------------------
--------------------------------------------------------------------------------
--------------------------------------------------------------------------------


--------------------|
---10-------0-------|
--------------------|
--------------------|
--------------------|
--------------------|


--------------------------------------------------------------------------------
--9--------0--------8--------0--------7--------0--------6--------0--------5-----
--------------------------------------------------------------------------------
--------------------------------------------------------------------------------
--------------------------------------------------------------------------------
--------------------------------------------------------------------------------


--------------------|----------------|
---0--------4-------|----------------|
--------------------|----------------|
--------------------|--9b----9s------|
--------------------|----------------|
--------------------|----------------|


----------------------------------------------------|
----------------------------------------------------|
-----------------------------21-11h15-20-11h16------|
--------------------21-11h16------------------------|
-----------20-12h16---------------------------------|
--19-13h16------------------------------------------|


----------------------------------------------------|----------||
--13h12h10------------------------------------------|----------||
-----------12-11-9----------------------------------|----------||
--------------------12-10-9-------------------------|-----9----||
-----------------------------10-9--7----------------|----------||
--------------------------------------10-8--7L------|--7-------||
Composição de Andre Matos
Colaboração e revisão:
  • Alex Pereira
  • Victor Lázaro
  • Jamil Neto
18.589 exibições
    • ½ Tom
    • A
    • Bb
    • B
    • C
    • Db
    • D
    • Eb
    • E
    • F
    • F#
    • G
    • Ab
  • Adicionar à lista

    0 comentários

    Mostrar mais comentários

    Conseguiu tocar?

    0 Tocaram 0 Ainda não

    Grave um vídeo tocando Pride e mande pra gente!

    00:00 / 00:00
    outros vídeos desta música
    repetir qualidade Automático
    Outros vídeos desta música
    00:00 / 00:00
    Automático

    Cifra Club Pro

    Aproveite o Cifra Club com benefícios exclusivos e sem anúncios
    Cifra Club Pro
    Aproveite o Cifra Club com benefícios exclusivos e sem anúncios
    OK