Cifra Club

Aprenda

Time will come

Shaman

Cifra: Principal (violão e guitarra)
Tom: D
F#m                  A             Em Em  F#m
e|-------4-5-------7--5-----4-5---------7--7--5------------
B|-----------7-5----------------7-5------------------------
G|---------------6------------------6----------------------
D|---------------------------------------------------------
D|-----------------------0---------------------------------
E|--2-----------------------------------0--0--2------------

ps2:Ouça a musica q a introduçao se repete 2 vezes, na
segunda ela acaba no La.

Riff 1:
    F#m               G#
PM .................
e|------------------------------
B|------------------------------
G|------------------------------
D|-4-4-4-4-4-4-4-4-4---6~~-6/---
A|-4-4-4-4-4-4-4-4-4---6~~-6/---
E|-2-2-2-2-2-2-2-2-2---4~~-4/---

Passagem 1:
   
 A
e|--0~~~~-----------------
B|--0~~~~-----------------
G|--2~~~~-----------------
D|--2~~~~-----------------
A|--0~~~~-----------------
E|------------------------

Riff2 - Verso
   
   F#m              D            (Ré diminuto)
PM .  .  .  .      . . . .     . . . 
e|----------------------------------------------------
B|----------------------------------------------------
G|----------------7-7-7-7-7-7--7-7-7-7-7-----9~~---6~~
D|-4-4-4-4-4-4----7-7-7-7-7-7--7-7-7-7-7--------------
A|-4-4-4-4-4-4----5-5-5-5-5-5--6-6-6-6-6--------------
E|-2-2-2-2-2-2----------------------------------------

Passagem 2:
Ps:2 guitarras, uma harmonizada, soh vou por uma.

e|-9-12---------------------
B|------10~~--12--9-10-9~~--
G|--------------------------
D|--------------------------
A|--------------------------
E|--------------------------

e|-9-12-------12-14--10-9-10-9~~
B|------10~~--------------------
G|------------------------------
D|------------------------------
A|------------------------------
E|------------------------------

Refrão:

   F#m                D               A        B
e|---------------------------------------------------
B|---------------------------------------------------
G|-------------------7-7-7-7-7-7-7---2-2-2-2--4-4-4-4
D|--4-4-4-4-4-4-4-4--7-7-7-7-7-7-7---2-2-2-2--4-4-4-4
A|--4-4-4-4-4-4-4-4--5-5-5-5-5-5-5---0-0-0-0--2-2-2-2
E|--2-2-2-2-2-2-2-2---------------------------------
Composição de Hugo Mariutti
Colaboração e revisão:
  • eric bizinoto
  • Renato Mestre
19.795 exibições
    • ½ Tom
    • A
    • Bb
    • B
    • C
    • Db
    • D
    • Eb
    • E
    • F
    • F#
    • G
    • Ab
  • Adicionar à lista

    0 comentários

    Mostrar mais comentários

    Conseguiu tocar?

    0 Tocaram 0 Ainda não

    Grave um vídeo tocando Time will come e mande pra gente!

    00:00 / 00:00
    outros vídeos desta música
    repetir qualidade Automático
    Outros vídeos desta música
    00:00 / 00:00
    Automático

    Cifra Club Pro

    Aproveite o Cifra Club com benefícios exclusivos e sem anúncios
    Cifra Club Pro
    Aproveite o Cifra Club com benefícios exclusivos e sem anúncios
    OK