Cifra Club

Never Be Alone

Shawn Mendes

Cifra: Principal (violão e guitarra)
Tom: B (forma dos acordes no tom de G) Capotraste na 4ª casa
[Intro]  Em  C  G

E|---------0--0--2--0-----------0--0--2--0-------------|
B|---0--3--------------3--0--3--------------3--0--3--0-|
G|-----------------------------------------------------|
D|-----------------------------------------------------|
A|-----------------------------------------------------|
E|-----------------------------------------------------|

       Em            C              G             G
E|-------------| -------------|--------------|----------|
B|-----0-----0-| ---1------1--|-----0-----0--|----------|
G|-----0-----0-| ---0------0--|-----0-----0--|----------|
D|-------------| -----0h2-----|--------------|----------|
A|-------0h2---| -3-----------|-------0h2----|----------|
E|---2---------| -------------|---3----------|---2------|

 Em                              C
I promise that one day I'll be around
                                   G
I'll keep you safe, I'll keep you sound
       Em
Right now it's pretty crazy
       C                                 G
And I don't know how to stop or slow it down

 C                                            Em
Hey, I know there are some things we need to talk about
              C                                     D
And I can't stay.  So let me hold you for a little longer now

 G                  C
Take a piece of my heart
                     G
And make it all your own
                 D  B7
So when we are apart
                Em
You'll never be alone
 C              G
You'll never be alone

( Em  C  G )

E|---------0--0--2--0-----------0--0--2--0--------------|
B|---0--3--------------3--0--3--------------3--0--3--0--|
G|------------------------------------------------------|
D|------------------------------------------------------|
A|------------------------------------------------------|
E|------------------------------------------------------|

You'll never be alone
  Em                        C
When you miss me close your eyes
                        G
I may be far but never gone
          Em                      C                              G
When you fall asleep tonight just remember that we lay under the same stars

 C                                            Em
Hey, I know there are some things we need to talk about
              C                                      D
And I can't stay, Just let me hold you for a little longer now

 G                  C
Take a piece of my heart
                     G
And make it all your own
                 D
So when we are apart
                Em
You'll never be alone
 C              G
You'll never be alone

( Em  C  G )

E|---------0--0--2--0-----------0--0--2--0--------------|
B|---0--3--------------3--0--3--------------3--0--3--0--|
G|------------------------------------------------------|
D|------------------------------------------------------|
A|------------------------------------------------------|
E|------------------------------------------------------|

You'll never be alone

You'll never be alone

You'll never be alone

You'll never be alone

 G                  C
Take a piece of my heart
                     G
And make it all your own
                 D  B7
So when we are apart
                Em
You'll never be alone
 C              G
You'll never be alone

( Em  C  G )

E|---------0--0--2--0-----------0--0--2--0--------------|
B|---0--3--------------3--0--3--------------3--0--3--0--|
G|------------------------------------------------------|
D|------------------------------------------------------|
A|------------------------------------------------------|
E|------------------------------------------------------|
exibições 241.991

0 comentários

mostrar mais comentários

Conseguiu tocar?

101 tocaram 17 ainda não

Grave um vídeo tocando Never Be Alone e mande pra gente!

00:00 / 00:00
outros vídeos desta música
repetir qualidade Automático
Outros vídeos desta música
00:00 / 00:00
Automático
OK