Cifra Club

Bonecracker

Shocore

Cifra: Principal (violão e guitarra)
Selo Cifra Club: esta cifra foi revisada para atender aos critérios oficiais da nossa Equipe de Qualidade.
tom: C
Album: Devil Rock Disco
As tabbed by Joe Muggah

Dropped D
 = harmonics

Riff
e--13/15\13--10/12\10--8/10\8--13/15\13--10/12\10--8/10\8--
B----------------------------------------------------------
G----------------------------------------------------------
D----------------------------------------------------------
A----------------------------------------------------------
D----------------------------------------------------------

Chorus
e----------------------------------------------------------
B----------------------------------------------------------
G----------------------------------------------------------
D--3---0---2-----------3---0---2---------------------------
A--3---0---2---5---5---3---0---2---------------------
D--3---0---2-----------3---0---2---------------------------

Verse (played once)
e----------------------------------------------------------
B----------------------------------------------------------
G----------------------------------------------------------
D--3---0---2-----------------------------------------------
A--3---0---2-----------------------------------------------
D--3---0---2-----------------------------------------------

Post-Chorus
e----------------------------------------------------------
B----------------------------------------------------------
G----------------------------------------------------------
D--3---0---2---------------3---0---2-----------------------
A--3---0---2---------3---0---2-----------------
D--3---0---2---------------3---0---2-----------------------

Bass
G----------------------------------------------------------
D----------------------------------------------------------
A--/5---------------/5-------------------------------------
D-------5---3---0--------5---3---0-------------------------


Riff
Chorus
Verse
Chorus
Riff
Post-Chorus
Riff
Verse
Chorus
Riff
Verse
Chorus
Post-Chorus

During the verse there is very little guitar. I included the
one and only bass riff in the song, so you can play that if 
you get bored during the verse.
Outros vídeos desta música
    224 exibições
      • ½ Tom
      • A
      • Bb
      • B
      • C
      • Db
      • D
      • Eb
      • E
      • F
      • F#
      • G
      • Ab
    • Adicionar à lista

    Afinação da cifra

    Afinador online

      0 comentários

      Ver todos os comentários

      Conseguiu tocar?

      0Tocaram0Ainda não

      Grave um vídeo tocando Bonecracker e nos envie!

      Toque também

      1. Imagem do artista Todd ThibaudAlready Gone Todd Thibaud
      2. Imagem do artista StereoblisEight Half Letters Stereoblis
      3. Imagem do artista The FuzzI Love You For All Seasons The Fuzz
      4. Imagem do artista Micah GreenFamily Circus Micah Green

      Entre para o Cifra Club PRO

      Tenha acesso a benefícios exclusivos no App e no Site

      • Chega de anúncios

      • Badges exclusivas

      • Mais recursos no app do Afinador

      • Atendimento Prioritário

      • Aumente seu limite de lista

      • Ajude a produzir mais conteúdo

      Cifra Club Pro

      Aproveite o Cifra Club com benefícios exclusivos e sem anúncios
      Cifra Club Pro
      Aproveite o Cifra Club com benefícios exclusivos e sem anúncios
      Ops (: Contenido disponible sólo en portugués.
      OK