Cifra Club

Do You Feel The Same

Silverchair

Cifra: Versão 3 (violão e guitarra)
tom: G
Transcribed By: Sam Brooking

Intro/verse: distorted

 e|------------------------------------------|
 B|------------------------------------------|
 G|------------------------------------------|
 D|-7--7-xx-77-xx-3--3-xx-33-xx--------------|  repeat x 4
 A|-7--7-xx-77-xx-3--3-xx-33-xx--------------|
 E|-5--5-xx-55-xx-1--1-xx-11-xx--------------|
       *             * 
* - Staccato

Pre-Chorus: Acoustic Guitar.
chords are here work the rythm out yourself 
(u can play either the open or bar chords)
    G  Am  C  G  Am  F
 
 e|-3--5---3--3---5--1-------|
 B|-3--5---5--3---5--1-------|
 G|-4--5---5--4---5--2-------|
 D|-5--7---5--5---7--3-------| 
 A|-5--7---3--5---7--3-------|
 E|-3--5---3--3---5--1-------|

Chorus: Distorted
 e|-------------|----------------------------|
 B|-------------|----------------------------|First time play once through
 G|-------------|----------------------------|with the last G5 
 D|-7--3----5-5-|-7---3--5-------------------|
 A|-7--3----5-3-|-7---3--5-------------------|Second chorus play first bar 4 times
 E|-5--1----3-3-|-5---1--3-------------------|

"do you feel the same anyway..now you've come..do you feel the same"

Interlude: distorted, with a bit of flanger
 e|------------------------------------------|
 B|------------------------------------------|
 G|------------------------------------------|
 D|-7~--3~----5~-----------------------------|
 A|-5~--3~----5~-----------------------------|
 E|-5~--1~----3~-----------------------------|

    this is played with tremolo
   ...if u dont own a tremolo switch just play lyk this
 e|------------------------------------------|
 B|------------------------------------------|
 G|------------------------------------------|
 D|-777777777777-333333-533333---------------|
 A|-777777777777-333333-533333---------------|
 E|-555555555555-111111-333333---------------|
    ************ ****** ******
 * - Staccato

SOLO:
Distorted with a bit of flanger, same as the interlude.

 E|---------------------------------------|
 B|--7-(7)---7^-(7)-----------------------|
 G|--7-(7)---7^-(7)h5---5---------5^(1/4)-|
 D|------------------------7-7------------|
 A|-------------------7-------------------|
 E|---------------------------------------| 

 E|----------------------------------------------------------5---------|
 B|------------------------------------------------8---5-8^----8-------|
 G|---------------------------------------5^-5-7-7^--7-----------5~~~--|
 D|--------------------------5---5-7-5-7-------------------------------|
 A|--------3---3-5-3-5-7-5-7---7---------------------------------------|
 E|--5-3-5---5---------------------------------------------------------|

 E|--------------------------------------------------------------------|
 B|--------------------------------------------------------------------|
 G|--(5)~~~-7----------------------------------------------------------|
 D|------------5/7----------------------5-5---5h7-----3---3------------|
 A|----------------6----------------5h7-----7--------------------------|
 E|------------------5-7-(7)-5-(5)\------------------------------------|

 E|--------------------------------------------------------------------|
 B|--------------------------------------------------------------------|
 G|--------------------------------------------------5-7^-(7)-5--------|
 D|--(3)--(3)/---7------------7-----------------5h7-7------------------|
 A|----------------6-----5-7----6-----5-7--5h7-7-----------------------|
 E|------------x-----5-8----------5-8----------------------------------|

 E|--------------------------------------------------------------------|
 B|--------------------------------------------------------------------|
 G|--(5)---4-5-4-5h4---------------------------------------------------|
 D|-----------------5h7/5-----(5)\-------------------------------------|
 A|--------------------------------------------------------------------|
 E|--------------------------------------------------------------------|


Pre-Chorus: Acoustic Guitar.
chords are here work the rythm out yourself 
(u can play either the open or bar chords)
    G  Am  C  G  Am  F
 
 e|-3--5---3--3---5--1-------|
 B|-3--5---5--3---5--1-------|
 G|-4--5---5--4---5--2-------|
 D|-5--7---5--5---7--3-------| 
 A|-5--7---3--5---7--3-------|
 E|-3--5---3--3---5--1-------|

Chorus:
 e|-------------|-----------------------------|
 B|-------------|-----------------------------|
 G|-------------|-----------------------------| 
 D|-7--3----5-5-|-7---3--5--------------------|
 A|-7--3----5-3-|-7---3--5--------------------| 
 E|-5--1----3-3-|-5---1--3--------------------|

Outro:
w/flanger

   Am                    F
 e|--------|------3-----|---------------3--------|
 B|----1---|-0-------0--|----1------------1------|
 G|--------|---0--------|------2---0--------2----|
 D|--------|------------|-3------3----3-------0--|
 A|-0------|------------|------------------------|
 E|--------|------------|------------------------|

   Am                     F             Fsus2
 e|-----------|-----3----|-------------|---------|
 B|-----1-----|-0-----0--|-1----1------|---------|
 G|-------2---|-0-----0--|-2------2----|-0-------|
 D|---------2-|----------|-3--------3--|-3-------|
 A|-0---------|----------|-3-----------|-3-------|
 E|-----------|----------|-------------|---------|
Composição de Daniel Johns
337 exibições
    • ½ Tom
    • A
    • Bb
    • B
    • C
    • Db
    • D
    • Eb
    • E
    • F
    • F#
    • G
    • Ab
  • Adicionar à lista

    0 comentários

    Ver todos os comentários

    Conseguiu tocar?

    0 Tocaram 0 Ainda não

    Grave um vídeo tocando Do You Feel The Same e nos envie!

    00:00 / 00:00
    Outros vídeos desta música
    Repetir Qualidade Automático
    Outros vídeos desta música
    00:00 / 00:00
    Automático

    Cifra Club Pro

    Aproveite o Cifra Club com benefícios exclusivos e sem anúncios
    Cifra Club Pro
    Aproveite o Cifra Club com benefícios exclusivos e sem anúncios
    OK