Cifra Club

Aprenda

Freak

Silverchair

Cifra: Principal (violão e guitarra)
tom: C
Intro 4x: (Riff 1)

Primeira Parte:
(Riff 1)
No more maybes
Your baby's got rabies
Sitting on a  ball
In the middle of the andes

Refrão:
(Riff 2)
   Yeah
I'm a freak of nature
   Yeah
I'm a freak

   F7M(11+)
If only I could be
           (Riff 3)
As cool as you
As cool as you

Segunda Parte:
(Riff 4)
Body and soul, I'm a freak, I'm a freak
Body and soul, I'm a freak, I'm a freak

Riff 4 - Parte 1 de 2            (3x)
F5      C5     D5
E|-------------------------------------
B|-------------------------------------
G|-------------------------------------
D|----3-------5------5---4---2---0-----
A|--3---3---3------0-------------------
E|3-------x------0-----0---0---0-------

Riff 4 - Parte 2 de 2
F5      C5     D5
E|-------------------------------------
B|-------------------------------------
G|-------------------------------------
D|----3-------5--0---------------------
A|--3---3---3----0---------------------
E|3-------x------0---------------------


(Riff 5)

Primeira Parte com variação na letra:

(Riff 1)
Try to be different
Well get a different disease
Seems it's in fashion
To need the cold sore cream

Refrão:
(Riff 2)
Yeah
I'm a freak of nature
Yeah
I'm a freak

(Riff 5)
I don't really know
How to put on a cool show
As boring as they come
Just tell me where to  go
   F7M(11+)
If only I could be as cool as you

(Riff 3)
As cool as you
As cool as you
As cool as you
As cool as you

Segunda Parte com variação:
(Riff 6)
Body and soul, I'm a freak, I'm a freak
Body and soul, I'm a freak, I'm a freak

Solo:

Solo - Parte 1 de 3
E|---------------------------------------------------
B|10-10-10-10-10-10-10-10-13-13-13-13-10-------------
G|----------------------------------------11-11-11-11
D|---------------------------------------------------
A|---------------------------------------------------
E|---------------------------------------------------

Solo - Parte 2 de 3
E|---------------------------------------------------
B|---------------------------------------------------
G|11-11-11-11-11-11-11-11-11-11-11-11-11-11----------
D|---------------------------------------------------
A|---------------------------------------------------
E|---------------------------------------------------

Solo - Parte 3 de 3
E|---------------------------------------------------
B|/12...\7.../10...\7...\----------------------------
G|---------------------------------------------------
D|---------------------------------------------------
A|---------------------------------------------------
E|---------------------------------------------------
Segunda Parte:
(Riff 6 com variação)
Body and soul, I'm a freak, I'm a freak
Body and soul, I'm a freak, I'm a freak

(Riff 1) (4x)
Freak

E5(11+)
Composição de D. Johns / Johns
Colaboração e revisão:
  • Tarsius Lima
122.871 exibições
    • ½ Tom
    • A
    • Bb
    • B
    • C
    • Db
    • D
    • Eb
    • E
    • F
    • F#
    • G
    • Ab
  • Adicionar à lista

    0 comentários

    Ver todos os comentários

    Conseguiu tocar?

    11 Tocaram 0 Ainda não

    Grave um vídeo tocando Freak e nos envie!

    00:00 / 00:00
    Outros vídeos desta música
    Repetir Qualidade Automático
    Outros vídeos desta música
    00:00 / 00:00
    Automático
    Capítulos
    • Início
    • Afinação
    • Tocando a música
    • Configuração do Efeito
    • Acordes da Introdução e Primeira Parte
    • Tocando Introdução e Primeira Parte
    • Ensinando Introdução e Primeira Parte
    • Acordes do Refrão
    • Tocando Refrão
    • Ensinando Refrão
    • Acordes da Segunda Parte
    • Tocando Segunda Parte
    • Ensinando Segunda Parte
    • Tocando Passagem e Repetições
    • Ensinando Passagem e Repetições
    • Acordes do Final
    • Tocando Solo e Final
    • Ensinando Solo
    • Ensinando Final
    • Encerramento

    Cifra Club Pro

    Aproveite o Cifra Club com benefícios exclusivos e sem anúncios
    Cifra Club Pro
    Aproveite o Cifra Club com benefícios exclusivos e sem anúncios
    OK