Cifra Club

Slave

Silverchair

Cifra: Principal (violão e guitarra)
tom: F#
**Afinação**  Dropped-D (D,A,D,G,B,E)

/ - Slide Gradual
h - hammer on


Intro:

E|-------------------------------------------------|
B|--7---7-7-7---6---6-6-6---7---7-7-7-7-7-4~-------|
G|--6---6-6-6---5---5-5-5---6---6-6-6-6-6-3~-------|
D|--4---4-4-4---4---4-4-4---4---4-4-4-4-4-1~-------|
A|--4---4-4-4---4---4-4-4---4---4-4-4-4-4-1~----1/-|
D|--4---4-4-4---4---4-4-4---4---4-4-4-4-4-1~----1/-|
                                                
E|-----------------------------------------|
B|-----------------------------------------|
G|-----------------------------------------|
D|-----------------------------------------|
A|--0--3h5----3h5----3--0--3h5---3h5----3--|
D|--0------0------0--3--0------0-----0--3--|

E|----------------------------------------|
B|----------------------------------------|
G|----------------------------------------|
D|----------------------------------0--4--|
A|--0--3h5---3h5----3--0--3h5---3h5-0--4--|
D|--0------0-----0--3--0------0-----0--4--|

E|---------------------------------|
B|---------------------------------|
G|---------------------------------|
D|--0-7--0-7-0--3---0--7-0-7-0--4--|
A|--0----0---0--3---0----0---0--4--|
D|--0----0---0--3---0----0---0--4--|

E|-----------------------------------------|
B|-----------------------------------------|
G|-----------------------------------------|
D|--0-7--0-7-0--3---0--7-0-7-0--4---4---4--|
A|--0----0---0--3---0----0---0--4---4---4--|
D|--0----0---0--3---0----0---0--4---4---4--|
                                _________PM  
         
E|---------------------------------|
B|---------------------------------|
G|---------------------------------|
D|--0-7--0-7-0--3---0--7-0-7-0--4--|
A|--0----0---0--3---0----0---0--4--|
D|--0----0---0--3---0----0---0--4--|

E|----------------------------------|
B|----------------------------------|
G|----------------------------------|
D|--0-7--0-7-0--3---0--7-0-7-0--1~--|
A|--0----0---0--3---0----0---0--1~--|
D|--0----0---0--3---0----0---0--1~--|


Verso:

E|---------------------------------------|
B|---------------------------------------|
G|----------------------------------6-6--|
D|--1--1-1-1--1-1-1-1--1-1--1-1-1-1-6-6--| 2x
A|--1--1-1-1--1-1-1-1--1-1--1-1-1-1-4-4--|
D|--1--1-1-1--1-1-1-1--1-1--1-1-1-1-4-4--|
"Lived too long..."

E|------------------------------------------------------|
B|------------------------------------------------------|
G|------------------------------------------------------|
D|--0-x-0-x-0-3--0-x-0-x-0-3--0-x-0-x-0-3--0-x-0-x-0-3--|
A|--0-x-0-x-0-3--0-x-0-x-0-3--0-x-0-x-0-3--0-x-0-x-0-3--|
D|--0-x-0-x-0-3--0-x-0-x-0-3--0-x-0-x-0-3--0-x-0-x-0-3--|

E|------------------------------------------------|
B|------------------------------------------------|
G|------------------------------------------------|
D|--0-x-0-x-0-3--0-x-0-x-0-3--0-x-0-x-0-3--0-x-0--|
A|--0-x-0-x-0-3--0-x-0-x-0-3--0-x-0-x-0-3--0-x-0--|
D|--0-x-0-x-0-3--0-x-0-x-0-3--0-x-0-x-0-3--0-x-0--|
"Lived too long waiting to just drown..."


Refrão:

E|-----------------------------------------------------------------------|
B|-----------------------------------------------------------------------|
G|-----------------------------------------------------------------------|
D|--0-0-0-10h12--0-0-0-0-10h12--0-0--10p9-0-10p9-0-10p9-0-10p9-0-10p9-8--| 4x
A|--0-0-0-10h12--0-0-0-0-10h12--0-0--10p9-0-10p9-0-10p9-0-10p9-0-10p9-8--|
D|--0-0-0-10h12--0-0-0-0-10h12--0-0--10p9-0-10p9-0-10p9-0-10p9-0-10p9-8--|
"Want to be your soldier..."

E|------------|
B|------------|
G|------------|
D|-1--1-1-1-1-|
A|-1--1-1-1-1-|
D|-1--1-1-1-1-|


Verso:

E|------------------------------------------------------|
B|------------------------------------------------------|
G|------------------------------------------------------|
D|--0-x-0-x-0-3--0-x-0-x-0-3--0-x-0-x-0-3--0-x-0-x-0-3--| 2x
A|--0-x-0-x-0-3--0-x-0-x-0-3--0-x-0-x-0-3--0-x-0-x-0-3--|
D|--0-x-0-x-0-3--0-x-0-x-0-3--0-x-0-x-0-3--0-x-0-x-0-3--|
"Only book that I own is called how to lose"


Ponte:

Baixo:

D|-0---0--0-3--0---0--0-3--0---0--0-3--0---0--0-3-|

D|-0---0--0-3--0---0--0-3--0---0--0-3--0--0--4|

Daniel toca este acorde nesta ponte:

E|--4--|
B|--3--| 
G|--2--|
D|--0--| D5º
A|-----|
D|-----|


Refrão:

E|-----------------------------------------------------------------------|
B|-----------------------------------------------------------------------|
G|-----------------------------------------------------------------------|
D|--0-0-0-10h12--0-0-0-0-10h12--0-0--10p9-0-10p9-0-10p9-0-10p9-0-10p9-8--| 4x
A|--0-0-0-10h12--0-0-0-0-10h12--0-0--10p9-0-10p9-0-10p9-0-10p9-0-10p9-8--|
D|--0-0-0-10h12--0-0-0-0-10h12--0-0--10p9-0-10p9-0-10p9-0-10p9-0-10p9-8--|
"Want to be your soldier..."

E|--------------------------------------|
B|--------------------------------------|
G|--------------------------------------|
D|--10p9-0-10p9-0-10p9-0-10p9-0-10p9-8--| 4x
A|--10p9-0-10p9-0-10p9-0-10p9-0-10p9-8--|
D|--10p9-0-10p9-0-10p9-0-10p9-0-10p9-8--|

GO!
E|-------------------------------|
B|-------------------------------|
G|-------------------------------|  play 8x
D|-2p1-0-2p1-0-2p1-0-2p1-0-2p1-0-|
A|-2p1-0-2p1-0-2p1-0-2p1-0-2p1-0-|
D|-2p1-0-2p1-0-2p1-0-2p1-0-2p1-0-|

E|--------------------------------------|
B|--------------------------------------|
G|--------------------------------------|
D|--10p9-0-10p9-0-10p9-0-10p9-0-10p9-8--| 4x
A|--10p9-0-10p9-0-10p9-0-10p9-0-10p9-8--|
D|--10p9-0-10p9-0-10p9-0-10p9-0-10p9-8--|


Final:

E|-11...--14...--13...--15...--|
B|-10...--13...--12...--14...--|
G|-8-...--11...--10...--12...--|
D|-8-...--11...--10...--12...--|
A|-9-...--12...--11...--13...--|
D|-----------------------------|
"I can't fly, I can't fly"


Riff Final:

E|---------------------------------|
B|---------------------------------|
G|---------------------------------|
D|--0-3/-------------------3--0~~--|
A|--0-3/--0--3h5----3h5----3--0~~--|
D|--0-3/--0------0------0--3--0~~--|
Composição de Ben Gillies / Daniel Johns
Colaboração e revisão:
  • Bruno Misso
17.948 exibições
    • ½ Tom
    • A
    • Bb
    • B
    • C
    • Db
    • D
    • Eb
    • E
    • F
    • F#
    • G
    • Ab
  • Adicionar à lista

    0 comentários

    Ver todos os comentários

    Conseguiu tocar?

    1 Tocaram 0 Ainda não

    Grave um vídeo tocando Slave e nos envie!

    00:00 / 00:00
    Outros vídeos desta música
    Repetir Qualidade Automático
    Outros vídeos desta música
    00:00 / 00:00
    Automático

    Cifra Club Pro

    Aproveite o Cifra Club com benefícios exclusivos e sem anúncios
    Cifra Club Pro
    Aproveite o Cifra Club com benefícios exclusivos e sem anúncios
    OK