Cifra Club

Aprenda

Tomorrow

Silverchair

Cifra: Principal (violão e guitarra)
tom: G
Afinação padrão: EADGBe

intro. A G C9 (C9/B C9/G) 

A                              G           D4 (C9 C9/B C9/G)
It's twelve o'clock, and it's a wonderful day.
A                              G        D4 (C9 C9/B C9/G)
I know you hate me, but I'll ask anyway.
A                              G                   D4 (C9 C9/B C9/G) 
Won't you come with me, to a place in a little town.
A                              G            D4 (C9 C9/B C9/G)   
The only way to get there's to go straight down.
A                         G           D4 (C9 C9/B C9/G)
There's no bathroom, and there is no sink.
A                          G    D4        A
The water out of the tap is very, hard to drink,
             B     C  -solo1-      -solo2-     
Very hard to drink.

solo1                           solo2
------------------              -5--10-12-10--8--
------------------              -5--10--------8--
------------5-0---              -6--11--------9-- 
-------5-7--------              -7--12--------10-
-0-5-7------------              -0--0---------0--
------------------              -----------------

A D C D         A   D C D 
  You, wait till tomorrow
A D C D         A   D C D
  You, wait till tomorrow

A                   G           D4 (C9 C9/B C9/G)
You say that money, isn't everything,
A                              G           D4 (C9 C9/B C9/G)
But I'd like to see you live without it.
A                              G               D4 (C9 C9/B C9/G)
You think you can keep on going living like a king.
A                        G           D4 
Oohh babe, but I strongly doubt it.
A             B  C
Very hard to drink.
A              D           
You gonna wait till, fat boy,
C      D              A      D C D
Fat boy, wait until tomorrow


-=======-
TABLATURA
-=======-

Tuning-standard

Key
x-play muted strings
p-pull off
h-hammer on
/-slide down
V-downstroke
^-upstroke

intro (Clean)
E|-------0----------------0---------------3p2--------------------------|
B|---------2------2----------2-----------------3-----------------------|
G|-------------2--2--------------0----2------------2-----0-----0-----0-|
D|---2-------2----2---2--------2----0---0--------0-----2-----0-----2---|
A|-0---0----------0-----0----------------------------3-----2-----3-----|
E|---------------------------------------------------------------------|

Verse (with variation...basically strum the A freehand)
  A                        G     D   
E|-----------------------------3-0--------------|
B|------------------2---0--3---3-3--3-0---------|
G|-2---2-2----------2---0--0---0-0--2-0---------|
D|-2---2-2----2---------0--0---0-0--0-0--2------|
A|-0---0-0--0-0--0----0h2--2---2---------3p0-2--|
E|-------------------------3---3-------------3--|
(Before pre-chorus hit distortion on the D)

Pre-Chorus
E|----------------------------------------------------|
B|----------------------------------------------5-----|
G|-2---2-------2-2--x-x-4---4--x-x-5--5---------5-----|
D|-2---2-------2-2--x-x-4---4--x-x-5--5-----5h7-------| 
A|-0---0--0-0--0-0--x-x-2---2--x-x-3--3-5h7-----------| 
E|----------------------2---2--x-x-3--3---------------|
          P M

E|-----------------------------------------------------|
B|-------------3---------------------------------5-----|
G|-2---2-------2p2---x-x-4---4--x-x-5--5---------5-----|
D|-2---2-------------x-x-4---4--x-x-5--5-----5h7-------| 
A|-0---0--0-0------2-x-x-2---2--x-x-3--3-5h7-----------| 
E|-----------------------2---2--x-x-3--3---------------|
          P M

E|-----------------------------------------------------|
B|-------------3---------------------------------5-----|
G|-2---2-------2p2---x-x-4---4--x-x-5--5---------5-----|
D|-2---2-------------x-x-4---4--x-x-5--5-----5h7-------| 
A|-0---0--0-0------2-x-x-2---2--x-x-3--3-5h7-----------| 
E|-----------------------2---2--x-x-3--3---------------|
          P M

E|--------------------|
B|---------3p2------2-| 
G|-2-2-----2----x-x-4-|
D|-2-2--------2-x-x-4-| 
A|-0-0-0-0------x-x-2-| 
E|------------------2-|
       P M

Interlude
-5-5--x-x-10--10--12p10-----------------8--8--8--x-x-10--10-12p10------------
-5-5--x-x-10--10--------10-12p10--------8-----8--x-x-10--10-------10-12p10---
-6----x-x-11---------------------11\9---9--------x-x-11-------------------11\
-7--------12---------------------12\10--10-----------12-------------------12\
-----------------------------------------------------------------------------
-----------------------------------------------------------------------------

Chorus
 A5          Dsus2/A          Csus2/G  Dsus2/A
E|-----------------------------------------------------|
B|------------------------------------x--5-5--5-5-5----|
G|-2---2--x-x--7--7-7--7-7-7-7--5-5-x-x--7-7--7-7-7----|
D|-2---2--x-x--7--7-7--7-7-7-7--5-5-x-x--7-7--7-7-7----|
A|-0---0--x-x--5--5-5--5-5-5-5--3-3-x----5-5--5-5-5----|
E|-------------5--5-5--5-5-5-5--3-3------5-5--5-5-5----|
(this is the basic chord progression--slight variation)

2nd Chorus
play normal chorus, then play A, Dsus2/A, Csus2/G as you would normally play
the chorus but when you end on Csus2/G go to this riff
E|-----------------------------|
B|-3-3-3-3--5-5-5-5--5-5-------|
G|-5-5-5-5--7-7-7-7--7-7-------|
D|-5-5-5-5--7-7-7-7--7-7--x-x--|
A|-3-3-3-3--5-5-5-5--5-5--x-x--|
E|-3-3-3-3--5-5-5-5--5-5--x-x--|

Solo (from book)
        PM  ~~~~~~~~~
---------------------------------------
--5^(1/4)----------------------------5-
--5^(1/2)----------------------5--7--5-
----------7--5--7-----------7----------
---------------------------------------
---------------------------------------

             _________            _________  _________________________
--------------------------------------------------------------------------
-----------8-7^(1/4)-7----------------------------------------------------
--7^(full)---7^(1/2)-7p5--7(full)-7(full)-7--7(full)-7(full)-7(full)7--5h7
--------------------------------------------------------------------------
--------------------------------------------------------------------------
--------------------------------------------------------------------------

          ~~~~                         ~~~
--------------------------------------------------
--------------------------------------------------
-7^(full)-7-----5h7--5^(1/2)-----5----------------
------------------------------7--5--7--7---5h7----
--------------------------------------------------
--------------------------------------------------

                     ~~~~~~~~
-------------------------------------------------
-------------------------------------------------
---------------5---------------------------------
---------------5--7--7---------------------------
--7\5--5--5/7------------------------------------
--------------------------------1/14\1-1-1--1-1--

                         ___________        __________
-10^(full)--10^(full)10--10^(full)10--------------------------
-------------------------10^(full)10--8--10-10^(1/2)10p8-10---
--------------------------------------------------------------
--------------------------------------------------------------
--------------------------------------------------------------
--------------------------------------------------------------

                                    ~~~~
 __________              _________________________________________    
----------------------------------------------------10-----------------
-10^(1/2)10--8-----8--10-10^(full)--10-----10(full)-----10(full)10--8--
----------------9------------------------------------------------------
-----------------------------------------------------------------------
-----------------------------------------------------------------------
-----------------------------------------------------------------------
 
  ~~~~~                             ~~~~
---------0--------------------------------------
--10-----0--5^(1/4)-----------------------------
------------5^(1/2)--5^(1/2)--------------5h7---
-------------------------------7-7--7-----------
------------------------------------------------
------------------------------------------------

                          _________                _________
------------------------------------------------------------------------
-7^(full)---8-8---------8-8----------8-8---------8----------------------
--------------7^(full)----7^(full)7----7^(full)----7^(full)7---5^(1/2)--
------------------------------------------------------------------------
------------------------------------------------------------------------
---------------------------------------------------------------------
Composição de Ben Gillies / Daniel Johns
108.953 exibições
    • ½ Tom
    • A
    • Bb
    • B
    • C
    • Db
    • D
    • Eb
    • E
    • F
    • F#
    • G
    • Ab
  • Adicionar à lista

    0 comentários

    Ver todos os comentários

    Conseguiu tocar?

    5 Tocaram 1 Ainda não

    Grave um vídeo tocando Tomorrow e nos envie!

    00:00 / 00:00
    Outros vídeos desta música
    Repetir Qualidade Automático
    Outros vídeos desta música
    00:00 / 00:00
    Automático

    Cifra Club Pro

    Aproveite o Cifra Club com benefícios exclusivos e sem anúncios
    Cifra Club Pro
    Aproveite o Cifra Club com benefícios exclusivos e sem anúncios
    OK