Cifra Club

Aprenda

My Heroine

Silverstein

Cifra: Principal (violão e guitarra)
Tom: G
Intro:
     Em            C             D          D
e|------------|------------|------------|------------|
B|---0--------|------------|------------|------------|
G|-------0----|------0-----|------0-----|0-----0-----|
D|-----5---5-0|--0-5---5---|0---4---4---|--4-----5---|2x
A|------------|3---------5-|--5-------5-|----5-----4-|
E|0-----------|------------|------------|------------|




Solo
The drugs begin to peak 
Solo
A smile of joy arrives in me 
     C5         D5        E5        D5 
But sedation changes to panic and nausea 
     C5               D5 
And breath starts to shorten 
     Em                D5 
And heartbeats pound softer 
Em        C5        D5 
You won't try to save me! 
                
E|------------|------------|
B|------------|------------|
G|------------|------------|
D|-5--4--7--4-|-5----------|
A|-5--5--5--5-|-5----------|
E|------------|------------|

Em         C5          D5                            C 
You just want to hurt me 
------------------------
E|------------|------------|
B|------------|------------|
G|------------|------------|
D|-5--5--4--5-|-4----------|
A|-5--5--5--5-|-5----------|
E|------------|------------|
 and leave me desperate!
C      D          Em                            C
You taught my heart, a sense I never knew I had. 
      D       Em                     C
I can forget, the times that I was  
           D                Em 
Lost and depressed from the awful truth 
                    C 
How do you do it? 
               D 
You're my heroine! 
 
Em          C5        D5 
You won't leave me alone! 
E|------------|------------|
B|------------|------------|
G|------------|------------|
D|-5--4--7--4-|-5----------|
A|-5--5--5--5-|-5----------|
E|------------|------------|
Em         C5            D5                        
Chisel my heart out of stone, 
---------------------------
E|------------|------------|
B|------------|------------|
G|------------|------------|
D|-5--5--4--5-|-4----------|
A|-5--5--5--5-|-5----------|
E|------------|------------|
I give in everytime. 
 
 
 
C      D        Em                                 C      
You taught my heart, a sense I never knew I had. 
   D     Em                      
I can forget, the times that I was  
C           D                Em 
Lost and depressed from the awful truth 
                    C 
How do you do it? 
               D        G5      
You're my heroine! 
 
 
          B5              Em5           D5              C5          D5    G5 
I bet you laugh, at the thought of me thinking for myself. (myself) 
           B5                Em5               D5                C5 
I bet you believe, that I'm better off with you than someone else. 
Solo                   Solo
Your face arrives again, all hope I had becomes surreal.    
C5            D5          Em5          D5
But under your covers more torture than pleasure 
   C5              D5                 Em5            D5 
And just past your lips there's more anger than laughter 
    C5       D5          Em5       D5 
Not now or forever will I ever change you 
   C5          D5           Em           D5         C 
I know that to go on, I'll break you, my habit! 
 
 
      D        Em                                 C      
You taught my heart, a sense I never knew I had. 
   D     Em                      
I can forget, the times that I was  
C           D                Em 
Lost and depressed from the awful truth 
                    C 
How do you do it? 
               D  
You're my heroine! 
 
Em       C5    D5          
I will save myself!

E|------------|------------|
B|------------|------------|
G|------------|------------|
D|-5--4--7--4-|-5-0-2-x----|
A|-5--5--5--5-|-5-0-2-x----|
E|------------|------------|

Aee pessoal aproveitem ae mtu phoda !
Composição de Shane Told
Colaboração e revisão:
  • Ricardo Koyama
  • Luiz Souza
26.186 exibições
    • ½ Tom
    • A
    • Bb
    • B
    • C
    • Db
    • D
    • Eb
    • E
    • F
    • F#
    • G
    • Ab
  • Adicionar à lista

    0 comentários

    Mostrar mais comentários

    Conseguiu tocar?

    0 Tocaram 0 Ainda não

    Grave um vídeo tocando My Heroine e mande pra gente!

    00:00 / 00:00
    outros vídeos desta música
    repetir qualidade Automático
    Outros vídeos desta música
    00:00 / 00:00
    Automático

    Cifra Club Pro

    Aproveite o Cifra Club com benefícios exclusivos e sem anúncios
    7 dias grátis
    Cifra Club Pro
    Aproveite o Cifra Club com benefícios exclusivos e sem anúncios
    7 dias grátis
    OK