Cifra Club

Aprenda

Lazy Eye

Silversun Pickups

Cifra: Principal (violão e guitarra)
tom: C
submited by: elSh0rtEe91
email: *
tabber: erik villegas


it sounds 100% correct. the first solo might be a lil sketchy but the notes are right. 
me an email if u spot anything wrong with it. And if u don't, give me good ratings!! well enjoy!


{0:00 - 0:10} MAIN RIFF
e]--------------------------------------|   X3
b]--------------------------------------|
g]--------------------------------------|
d]--6-6-6-6-6-6-6-6-4-4-4h6--6-6/7\6----|
a]--------------------------------------|
e]--------------------------------------|

{0:10 - 0:15}
e]----------------------------------|
b]----------------------------------|
g]----------------------------------|
d]--6-6-6-6-6-6-6-6-4\2/4-6-6-6/7\6-|
a]----------------------------------|
e]----------------------------------|

{0:15 - 0:22} BRIGDE
e]-------------------------------------|
b]-------------------------------------|
g]--66666666-44444444------------------|
d]--66666666-44444444-2222222222222222-|
a]--44444444-22222222-2222222222222222-|
e]--------------------0000000000000000-|

{0:20 - 0:33} VERSE
e]------------------------------------|
b]------------------------------------| X4
g]-----------4/6\4--------------------|
d]--66666666-------6-66-4-4h6---------|
a]------------------------------------|
e]------------------------------------|

background guitar
{0:33 - 0:41} MAIN RIFF
e]--------------------------------------|   X2
b]--------------------------------------|
g]--------------------------------------|
d]--6-6-6-6-6-6-6-6-4-4-4h6--6-6/7\6----|
a]--------------------------------------|
e]--------------------------------------|


{0:41 - 0:47} BRIDGE
e]------------------------------------|
b]------------------------------------|
g]--4/6-----6\4-----------------------|
d]--x-x-----x-x-------4/6-------------|
a]--2/4-----4\2-------x-x-------------|
e]--------------------2/4-------------|

{0:45 - 0:53} VERSE
e]------------------------------------|
b]------------------------------------| X2
g]-----------4/6\4--------------------|
d]--66666666-------6-66-4-4h6---------|
a]------------------------------------|
e]------------------------------------|

{0:53 - 0:57} MAIN RIFF
e]----------------------------------|
b]----------------------------------|
g]----------------------------------|
d]--6-6-6-6-6-6-6-6-4\2/4-6-6-6/7\6-|
a]----------------------------------|
e]----------------------------------|

{0:57 - 1:01}
e]-----------------------------------|
b]-----------------------------------|
g]-----------------------------------|
d]--6-6-6-6-6-6-6-6-4-4-4h6--6-6/7\6-|
a]-----------------------------------|
e]-----------------------------------|

(1:01 - 1:07} BRIDGE
e]------------------------------------|
b]------------------------------------|
g]--4/6-----6\4-----------------------|
d]--x-x-----x-x-------4/6-------------|
a]--2/4-----4\2-------x-x-------------|
e]--------------------2/4-------------|


{1:07 - 1:19}  SOLO 1
e]------------------------------------------|
b]--55-3-0--0-------------------------------|
g]---------2--2-1----4-----4----------------|
d]----------------4-6-6-4h6-6---------------|
a]-----------------------------------7\5----|
e]----------------------------------------7-|

e]-----------------------------------------|
b]--5555555-7-99-9-9b10r9--5555555-7-5-5/9-|
g]-----------------------------------------|
d]-----------------------------------------|
a]-----------------------------------------|
e]-----------------------------------------|

(1:19 - 1:23}  MAIN RIFF
e]----------------------------------|
b]----------------------------------|
g]----------------------------------|
d]--6-6-6-6-6-6-6-6-4\2/4-6-6-6/7\6-|
a]----------------------------------|
e]----------------------------------|

{1:23 - 1:26}
e]-----------------------------------|
b]-----------------------------------|
g]-----------------------------------|
d]--6-6-6-6-6-6-6-6-4-4-4h6--6-6/7\6-|
a]-----------------------------------|
e]-----------------------------------|

{1:26 - 1:31} BRIDGE
e]------------------------------------|
b]------------------------------------|
g]--4/6-----6\4-----------------------|
d]--x-x-----x-x-------4/6-------------|
a]--2/4-----4\2-------x-x-------------|
e]--------------------2/4-------------|

{1:31 - 1:33}
e]------------------------------------|
b]---55-3-0---------------------------|
g]------------------------------------|
d]------------------------------------|
a]------------------------------------|
e]------------------------------------|

{1:33 - 1:41} MAIN RIFF
e]------------------------------------| X2
b]------------------------------------|
g]------------------------------------|
d]--6-6-6-6-6-6-6-6-4\2/4-6-6-6/7\6---|
a]------------------------------------|
e]------------------------------------|

{1:41 - 1:46} BRIDGE
e]------------------------------------|
b]------------------------------------|
g]--4/6-----8\4-----------------------|
d]--x-x-----x-x-------4/6-------------|
a]--2/4-----6\2-------x-x-------------|
e]--------------------2/4-------------|

{1:45 - 2:00}  SOLO 2
e]---------------------------------------|
b]--99999-77-9-9/10\9--99999-7 7/9-99-55-|
g]---------------------------------------|
d]---------------------------------------|
a]---------------------------------------|
e]---------------------------------------|

e]--------------------------------------|
b]--99999-77-9-9/10\9--99999-7-5-5/9----|
g]--------------------------------------|
d]--------------------------------------|
a]--------------------------------------|
e]--------------------------------------|

{2:00 - 2:06} BRIDGE
e]------------------------------------|
b]------------------------------------|
g]--6--8--9---------------------------|
d]--6--8--9---------------------------|
a]--4--6--7---------------------------|
e]------------------------------------|

{2:06 - 2:11} VERSE
e]------------------------------------|
b]------------------------------------| X2
g]-----------4/6\4--------------------|
d]--66666666-------6-66-4-4h6---------|
a]------------------------------------|
e]------------------------------------|

{2:11 - 2:17} BRIDGE
e]------------------------------------|
b]------------------------------------|
g]--6--8--9---------------------------|
d]--6--8--9---------------------------|
a]--4--6--7---------------------------|
e]------------------------------------|

{2:15- 2:32} SOLO 3
e]-------------------------------------|
b]-------------------------------------|
g]-------------------------------------|
d]-/9--9-7-6-7-6--4-6-6-4h6-6-4--------|
a]-----------------------------5/7\5---|
e]-----------------------------------7-|

e]-----------------------------------|
b]-----------------------------------|
g]-----------------------------------|
d]--6-6-6-6-6-6-6-6-4-4-4h6--6-6/7\6-|
a]-----------------------------------|
e]-----------------------------------|

e]----------------------------------|
b]----------------------------------|
g]----------------------------------|
d]--6-6-6-6-6-6-6-6-4\2/4-6-6-6/7\6-|
a]----------------------------------|
e]----------------------------------|

{2:32 - 2:37}
e]------------------------------------|
b]------------------------------------|
g]--6--8--9---------------------------|
d]--6--8--9---------------------------|
a]--4--6--7---------------------------|
e]------------------------------------|


{2:42 - 2:47} BRIDGE
e]-------------------------------------|
b]-------------------------------------|
g]--66666666-44444444------------------|
d]--66666666-44444444-2222222222222222-|
a]--44444444-22222222-2222222222222222-|
e]--------------------0000000000000000-|


background guitar
{2:47 - 3:11}
e]---------------------------------------| X3
b]------5----5----5----5----5----5----5--|
g]---44---44---44---44---44---44---44----|
d]---44---44---44---44---44---44---44----|
a]---------------------------------------|
e]---------------------------------------|


{3:05 - 3:11} BRIDGE
e]-------------------------------------|
b]-------------------------------------|
g]--66666666-44444444------------------|
d]--66666666-44444444-2222222222222222-|
a]--44444444-22222222-2222222222222222-|
e]--------------------0000000000000000-|


(3:11-3:25} MAIN RIFF
e]--------------------------------------|   X4
b]--------------------------------------|
g]--------------------------------------|
d]--6-6-6-6-6-6-6-6-4-4-4h6--6-6/7\6----|
a]--------------------------------------|
e]--------------------------------------|


{3:39 - 4:02} BRIDGE
e]------------------------------------| X2
b]------------------------------------|
g]--6--8--9---------------------------|
d]--6--8--9---------------------------|
a]--4--6--7---------------------------|
e]------------------------------------|


background guitar
{4:16 - 4:39}
e]------------------------------------------|X2
b]------------------------------------------|
g]------------------------------------------|
d]-0-3-5-5/7-7\5-3-0-3--3-5-5/7-5\7-5-3-0-3-|
a]------------------------------------------|
e]------------------------------------------|


{4:54 - 4:58}
e]----------------------------------------------|
b]----------------------------------------------|
g]--------------------------------------2/5-5\2-|
d]-0-3-5-5/7-7\5-3-0-3--3-5-5/7-5\7-5-3---------|
a]----------------------------------------------|
e]----------------------------------------------|


{5:12 - 5:17} BRIDGE
e]-------------------------------------|
b]-------------------------------------|
g]--66666666-44444444------------------|
d]--66666666-44444444-2222222222222222-|
a]--44444444-22222222-2222222222222222-|
e]--------------------0000000000000000-|


{5:17 - 5:32} VERSE
e]------------------------------------|
b]------------------------------------| X4
g]-----------4/6\4--------------------|
d]--66666666-------6-66-4-4h6---------|
a]------------------------------------|
e]------------------------------------|

{5:32 - 5:42} MAIN RIFF
e]--------------------------------------|   X3
b]--------------------------------------|
g]--------------------------------------|
d]--6-6-6-6-6-6-6-6-4-4-4h6--6-6/7\6----|
a]--------------------------------------|
e]--------------------------------------|

{5:42 - 5:46}
e]----------------------------------|
b]----------------------------------|
g]----------------------------------|
d]--6-6-6-6-6-6-6-6-4\2/4-6-6-6/7\6-|
a]----------------------------------|
e]----------------------------------|

well thanks for looking at my tab!
Composição de Silversun Pickups
7.207 exibições
    • ½ Tom
    • A
    • Bb
    • B
    • C
    • Db
    • D
    • Eb
    • E
    • F
    • F#
    • G
    • Ab
  • Adicionar à lista

    0 comentários

    Ver todos os comentários

    Conseguiu tocar?

    0 Tocaram 0 Ainda não

    Grave um vídeo tocando Lazy Eye e nos envie!

    00:00 / 00:00
    Outros vídeos desta música
    Repetir Qualidade Automático
    Outros vídeos desta música
    00:00 / 00:00
    Automático

    Cifra Club Pro

    Aproveite o Cifra Club com benefícios exclusivos e sem anúncios
    Cifra Club Pro
    Aproveite o Cifra Club com benefícios exclusivos e sem anúncios
    OK