Cifra Club

Panic Switch

Silversun Pickups

Cifra: Principal (violão e guitarra)
tom: Fm
Intro 
E|-------------------------------------|
B|-------------------------------------|
G|-------------------------------------|
D|--3----------1-----------------------|(4x)
A|-------1---4-------------------------|
E|-----1----4--------------------------|

E|--------------------------------------------------|
B|--------------------------------------------------|
G|--------------------------------------------------|
D|-3--3/6--6/8--8/10--10---3--3/6--6/8--8\5--5\1--1-|(2x)
A|--------------------------------------------------|
E|--------------------------------------------------|

Riff
E|-------------------------------------------------------|
B|-9-9--99-9-11---8-88-8-8h9--8-88-8-9-6--8-6~~~---------|
G|-------------------------------------------------------|
D|-------------------------------------------------------|
A|-------------------------------------------------------|
E|-------------------------------------------------------|

E|-------------------------------------------------------|
B|-9-9--99-9-11---8-88-8-8h9--8-88-8-88-8-8-11b----------|
G|-------------------------------------------------------|
D|-------------------------------------------------------|
A|-------------------------------------------------------|
E|-------------------------------------------------------|

sem guitarra no verso

Pre-Chours                        Palhetada tremolo com bend 
E|----------------------------------------------------------|
B|------------------------------999999999999999999----------|
G|-3---5----8-----------------------------------------------|
D|-x---x----x-----------------------------------------------|
A|-1---3----6-----------------------------------------------|
E|----------------------------------------------------------|

Chours
E|-------------------------------------------------------------------------|
B|-------------------------------------------------------------------------|
G|--6666666666666666-1010101010101010-8888888888888888-5555555555555555----|
D|--6666666666666666-1010101010101010-8888888888888888-5555555555555555----|
A|--4444444444444444-8888888888888888-6666666666666666-3333333333333333----|
E|-------------------------------------------------------------------------|

E|-------------------------------------------------------------------------|
B|-------------------------------------------------------------------------|
G|--6666666666666666-1010101010101010-5555555555555555-8888888888888888----|
D|--6666666666666666-1010101010101010-5555555555555555-8888888888888888----|
A|--4444444444444444-8888888888888888-3333333333333333-6666666666666666----|
E|-------------------------------------------------------------------------|

Riff
E|-------------------------------------------------------|
B|-9-9--99-9-11---8-88-8-8h9--8-88-8-9-6--8-6~~~---------|
G|-------------------------------------------------------|
D|-------------------------------------------------------|
A|-------------------------------------------------------|
E|-------------------------------------------------------|

E|-------------------------------------------------------|
B|-9-9--99-9-11---8-88-8-8h9--8-88-8-88-8-8-11b----------|
G|-------------------------------------------------------|
D|-----------------------------------------------------3-|
A|-----------------------------------------------------3-|
E|-----------------------------------------------------1-|

sem guitarra no verso

Pre-Chours
E|----------------------------------------------------------|
B|------------------------------999999999999999999----------|
G|-3---5----8-----------------------------------------------|
D|-x---x----x-----------------------------------------------|
A|-1---3----6-----------------------------------------------|
E|----------------------------------------------------------|

Chours
E|-------------------------------------------------------------------------|
B|-------------------------------------------------------------------------|
G|--6666666666666666-1010101010101010-8888888888888888-5555555555555555----|
D|--6666666666666666-1010101010101010-8888888888888888-5555555555555555----|
A|--4444444444444444-8888888888888888-6666666666666666-3333333333333333----|
E|-------------------------------------------------------------------------|

E|-------------------------------------------------------------------------|
B|-------------------------------------------------------------------------|
G|--6666666666666666-1010101010101010-5555555555555555-8888888888888888----|
D|--6666666666666666-1010101010101010-5555555555555555-8888888888888888--3-|
A|--4444444444444444-8888888888888888-3333333333333333-6666666666666666--3-|
E|-----------------------------------------------------------------------1-|

Solo
E|-------------------------------------------------------------------------|
B|-------------------------------------------------------------------------|
G|--8-1010--8-1010--8-1010--8-1010--8-1010--8-1010--8-1010--8-1010---------|
D|-------------------------------------------------------------------------|
A|-------------------------------------------------------------------------|
E|-------------------------------------------------------------------------|
    
      |
E|----8------------------------------------------------------------|
B|------9----------------------------------------------------------|
G|--10----------10101010----8-8-8-8----7-7-7-7----5-5-5-5----------|
D|---------------x-x-x-x----x-x-x-x----x-x-x-x----x-x-x-x----------|
A|---------------8-8-8-8----6-6-6-6----5-5-5-5----3-3-3-3----------|
E|-----------------------------------------------------------------|

E|---------------------------------------------------8---------------------|
B|-----------------------------------------------------9-------------------|
G|10101010--13-13-13-13--12-12-12-12-10101010------10----------------------|
D|-x-x-x-x--x--x--x--x---x--x--x--x---x-x-x-x------------------------------|
A|-8-8-8-8--11-11-11-11--10-10-10-10--8-8-8-8------------------------------|
E|-------------------------------------------------------------------------|

Pre-Chours
E|-------------------------------------------------------------------------|
B|-------------------------------------------------------------------------|
G|--10101010\8888888888888888/1010101010101010\8888888888888888/10101010---|
D|--10101010\8888888888888888/1010101010101010\8888888888888888/10101010---|
A|--88888888\6666666666666666/8888888888888888\6666666666666666/88888888---|
E|-------------------------------------------------------------------------|

Chours
E|-------------------------------------------------------------------------|
B|-------------------------------------------------------------------------|
G|--6666666666666666-1010101010101010-8888888888888888-5555555555555555----|
D|--6666666666666666-1010101010101010-8888888888888888-5555555555555555----|
A|--4444444444444444-8888888888888888-6666666666666666-3333333333333333----|
E|-------------------------------------------------------------------------|

E|-------------------------------------------------------------------------|
B|-------------------------------------------------------------------------|
G|--6666666666666666-1010101010101010-5555555555555555-8888888888888888----|
D|--6666666666666666-1010101010101010-5555555555555555-8888888888888888----|
A|--4444444444444444-8888888888888888-3333333333333333-6666666666666666----|
E|-------------------------------------------------------------------------|

Outro
E|-------------------------------------|
B|-------------------------------------|
G|-------------------------------------|
D|--3----------1-----------------------|(8x)
A|-------1---4-------------------------|
E|-----1----4--------------------------|

Composição de Silversun Pickups
Colaboração e revisão:
  • omar jabbar
333 exibições
    • ½ Tom
    • Am
    • Bbm
    • Bm
    • Cm
    • C#m
    • Dm
    • Ebm
    • Em
    • Fm
    • F#m
    • Gm
    • G#m
  • Adicionar à lista

    0 comentários

    Ver todos os comentários

    Conseguiu tocar?

    0 Tocaram 0 Ainda não

    Grave um vídeo tocando Panic Switch e nos envie!

    00:00 / 00:00
    Outros vídeos desta música
    Repetir Qualidade Automático
    Outros vídeos desta música
    00:00 / 00:00
    Automático

    Cifra Club Pro

    Aproveite o Cifra Club com benefícios exclusivos e sem anúncios
    Cifra Club Pro
    Aproveite o Cifra Club com benefícios exclusivos e sem anúncios
    OK