Cifra Club

Sort Of

Silversun Pickups

Cifra: Principal (violão e guitarra)
tom: G
Riff Principal:
E|-------------------------------------------------------------------------|
B|-------------------------------------------------------------------------|
G|-------------------------------------------------------------------------|   (5x)
D|-------------------------------------------------------------------------|
A|-------------------------------------------5-----7----------5-----7------|
E|---1--3--5--7--8----1--3--5--7--8----5--8-----8-------5--8-----8---------|

E|--------------------------------------------|
B|--------------------------------------------|
G|--------------------------------------------|
D|--------------------------------------------|
A|------------------------------------7-------|
E|---1--3--5--7--8----3--5--3--8--7---5-------|

Pré-Refrão:
E|-------------------------------------------------|
B|-------------------------------------------------|
G|-------------------------------------------------|  (2x)
D|----------------------------------5-------(5)----|
A|------7-----5--3---------7-----5--3---3---(5)----|
E|---5-----3-----1------5-----3---------1---(3)----|

Refrão:
E|---------------------------------------------------------------------------|
B|---------------------------------------------------------------------------|
G|---------------------------------------------------------------------------|
D|---7-7-7-7-7-7-7-7-10-10-10-10-10-10-10-10-5-5-5-5-5-5-5-5-9-9-9-9-9-9-9-9-|
A|---7-7-7-7-7-7-7-7-10-10-10-10-10-10-10-10-5-5-5-5-5-5-5-5-9-9-9-9-9-9-9-9-|
E|---5-5-5-5-5-5-5-5--8--8--8--8--8--8--8--8-3-3-3-3-3-3-3-3-7-7-7-7-7-7-7-7-|

E|----------------------------------------|
B|----------------------------------------|
G|----------------------------------------|
D|---7-7-7-7-7-7-7-7-3-3-3-3-3-3-3-3-5~---|
A|---7-7-7-7-7-7-7-7-3-3-3-3-3-3-3-3-5~---|
E|---5-5-5-5-5-5-5-5-1-1-1-1-1-1-1-1-3~---|

Ponte:
E|---------------------------------------------|
B|---------------------------------------------|
G|---------------------------------------------|
D|---7----9---10----12----7----9----10----12---|
A|---5----7----8----10----5----7-----8----10---|
E|---------------------------------------------|

Solo:
E|--------------------------------------|
B|--------------------------------------|
G|---141414141414141414(141414141414)b--|
D|--------------------------------------|
A|--------------------------------------|
E|--------------------------------------|

E|-----------------------------------------------------------------|
B|-----------------------------------------------------------------|
G|-----------------------------------------------------------------|  (2x)
D|---7-5h7-5h7-5h10-9h10-9h10-1212-10h12-10h14-12p14-12p14---------|
A|-----------------------------------------------------------------|
E|-----------------------------------------------------------------|

E|--------------------------------------------------------------|
B|--------------------------------------------------------------|
G|--------------------------------------------------------------|  (2x)
D|--------------------------------------------------------------|
A|---8-7h8-7h8-7h12-10h12-10h12-1414-12h14-12h15-14h15-14h15----|
E|--------------------------------------------------------------|

E|-----------------------------------------------------------------|
B|-----------------------------------------------------------------|
G|-----------------------------------------------------------------|  (2x)
D|---7-5h7-5h7-5h10-9h10-9h10-1212-10h12-10h14-12p14-12p14---------|
A|-----------------------------------------------------------------|
E|-----------------------------------------------------------------|

E|--------------------------------------------------------------|
B|--------------------------------------------------------------|
G|--------------------------------------------------------------|  (2x)
D|--------------------------------------------------------------|
A|---8-7h8-7h8-7h12-10h12-10h12-1414-12h14-12h15-14h15-14h15----|
E|--------------------------------------------------------------|

E|------------------------------------------------------------------|
B|------------------------------------------------------------------|
G|------------------------------------------------------------------|  (2x)
D|------------------------------------------------------------------|
A|---10-9h10-9h10-9h12-10h12-10h12-1414-12h14-12h15-14h15-14h15-----|
E|------------------------------------------------------------------|

E|-----------------------------------------------------------------|
B|-----------------------------------------------------------------|
G|-----------------------------------------------------------------|  (2x)
D|---7-5h7-5h7-5h10-9h10-9h10-1212-10h12-10h14-12p14-12p14---------|
A|-----------------------------------------------------------------|
E|-----------------------------------------------------------------|

E|-------------------------------------|
B|-------------------------------------|
G|---141414141414141414(1414141414)b---|
D|-------------------------------------|
A|-------------------------------------|
E|-------------------------------------|
Composição de Silversun Pickups
Colaboração e revisão:
  • † Roarke
238 exibições
    • ½ Tom
    • A
    • Bb
    • B
    • C
    • Db
    • D
    • Eb
    • E
    • F
    • F#
    • G
    • Ab
  • Adicionar à lista

    0 comentários

    Ver todos os comentários

    Conseguiu tocar?

    0 Tocaram 0 Ainda não

    Grave um vídeo tocando Sort Of e nos envie!

    00:00 / 00:00
    Outros vídeos desta música
    Repetir Qualidade Automático
    Outros vídeos desta música
    00:00 / 00:00
    Automático

    Cifra Club Pro

    Aproveite o Cifra Club com benefícios exclusivos e sem anúncios
    Cifra Club Pro
    Aproveite o Cifra Club com benefícios exclusivos e sem anúncios
    OK