Cifra Club

Trouxa

Simonami

Cifra: Principal (violão e guitarra)
tom: G
 Intro e variações                G                            Em
E|-------------------------------3-----------------------------0-------|
B|-------------------------------3-----------------------------0-------|
G|---------------0---------------0-----------------------------0-------|
D|-----0—0h2--------0------------0----------0---2---0----------2-------|
A|--3------------------0---------2-------3-------------2-------2-------|
E|------------------------3------3-----------------------------0-------|

Durante a música
                 G                 Em
E|--------------3------------------0-------------------|
B|--------------3------------------0-------------------|
G|--------------0------------------0-------------------|
D|-----0-—2--0--0------0--2--0-----2-------------------|
A|--3-----------2---3-----------2--2-------------------|
E|--------------3------------------0-------------------|


   G
Para de dizer 
                 Em
Que vai dar tudo certo 
             G
Para de ser trouxa 
               Em (deixa soar)
E deixa eu te avisar 


              Em    D9
A vida é toda roxa 
              Em   D9
Cheia de hematoma  
             G
Cheia de cicatriz  



   G                       Em
Para de sair distribuindo abraço  
               G
Porque não há recompensas 
                      Em
E você não é desinteressado, eu sei.
00:00 / 00:00
Outros vídeos desta música
Repetir
Outros vídeos desta música
Composição de Lay Soares
Colaboração e revisão:
  • Ygor Maldonado
  • eduarda fernandes
1.322 exibições
    • ½ Tom
    • A
    • Bb
    • B
    • C
    • Db
    • D
    • Eb
    • E
    • F
    • F#
    • G
    • Ab
  • Adicionar à lista

    0 comentários

    Ver todos os comentários

    Entre para oCifra Club PRO

    Tenha acesso a benefícios exclusivos no App e no Site

    • Chega de anúncios

    • Prioridade de compra em lançamentos

    • Mais recursos no app do Afinador

    • Atendimento Prioritário

    • Descontos nos produtos Cifra Club

    • Ajude a produzir mais conteúdo

    00:00 / 00:00

    Cifra Club Pro

    Aproveite o Cifra Club com benefícios exclusivos e sem anúncios
    Cifra Club Pro
    Aproveite o Cifra Club com benefícios exclusivos e sem anúncios
    OK