Cifra Club

Aprenda

126 Cabides

Simone e Simaria

Cifra: Principal (violão e guitarra)
Já pensou em usar uma coleção de roupas do Cifra Club? Responda as perguntas abaixo e nos ajude nessa missão! →
tom: F
Intro:

E|---------------------------------------------------------|
B|--6-6-6-6-5-1-1/3-3/6--5/6-5-----------------------------|
G|----------------------------2h3-3/5-5--2-3-3/5-----------|
D|-----------------------------------------------5--3p2----|
A|---------------------------------------------------------|
E|---------------------------------------------------------|

Primeira parte:
    Dm               Bb
Contando, são 126 cabides
                                F
E no guarda-roupa, um grande espaço seu
    C    A7
Deixado
       Dm                        Bb
O que faço? Estou eu bem no meu canto
          F
Futuro levado meu
    C
Roubado

Riff 1
E|----6-5---------------------|
B|-------8-6-8----------------|
G|----------------------------|
D|----------------------------|
A|----------------------------|
E|----------------------------|

Pré-Refrão:
 Gm
Tô negociando com a solidão
 Bb                            F
Tô tentando convencer que ela não fique, não
    C
Se vá

Riff 1
E|----6-5---------------------|
B|-------8-6-6/8--------------|
G|----------------------------|
D|----------------------------|
A|----------------------------|
E|----------------------------|

 Gm                     F
Tô eu negociando com a solidão
 Bb                          F
Só me cobre esse juros no final da outra estação
      C
E se vá

Refrão:
Bb                            F        C
Eu nem quis te ver de malas prontas
              Gm
Levando o que eu temia
                    Bb          C
Suas roupas e minha alegria
                                F       C
E eu nem quis te ver de malas prontas
                    Gm
Nós dois não mais existe
 Bb         Bbm
Só ficaram 126 cabides

Solo:
E|----------------------------------------------------6-5---------|
B|--6-6-6-6-5-1-1/3-3/6--5/6-5----------------------------8-6-6/8-|
G|----------------------------2h3-3/5-5--2-3-3/5------------------|
D|-----------------------------------------------5----------------|
A|----------------------------------------------------------------|
E|----------------------------------------------------------------|

Pré-Refrão:
 Gm
Tô negociando com a solidão
 Bb                            F
Tô tentando convencer que ela não fique, não
C
Se vá

Riff 1
E|----6-5---------------------|
B|-------8-6-8----------------|
G|----------------------------|
D|----------------------------|
A|----------------------------|
E|----------------------------|

 Gm
Tô eu negociando com a solidão
 Bb                          F
Só me cobre esse juros no final da outra estação
      C
E se vá

Refrão:
 Bb                           F         C
Eu nem quis te ver de malas prontas
              Gm
Levando o que eu temia
                    Bb         C
Suas roupas e minha alegria
                                F        C
E eu nem quis te ver de malas prontas
                    Gm     Bb
Nós dois não mais existe
 Bb                           F         C
Eu nem quis te ver de malas prontas
              Gm
Levando o que eu temia
                    Bb         C
Suas roupas e minha alegria
                               F        C
E eu nem quis te ver de malas prontas
                    Gm
Nós dois não mais existe
 Bb         Bbm
Só ficaram 126 cabides

Final:
E|---------------------------------------------------------|
B|--6-6-6-6-5-1-1/3-3/6--5/6-5-----------------------------|
G|----------------------------2h3-3/5-5--------------------|
D|---------------------------------------------------------|
A|---------------------------------------------------------|
E|---------------------------------------------------------|
Compositor não encontrado.
258.290 exibições
    • ½ Tom
    • A
    • Bb
    • B
    • C
    • Db
    • D
    • Eb
    • E
    • F
    • F#
    • G
    • Ab
  • Adicionar à lista

    0 comentários

    Ver todos os comentários
    00:00 / 00:00
    Outros vídeos desta música
    Repetir Qualidade Automático
    Outros vídeos desta música
    00:00 / 00:00
    Automático

    Cifra Club Pro

    Aproveite o Cifra Club com benefícios exclusivos e sem anúncios
    Cifra Club Pro
    Aproveite o Cifra Club com benefícios exclusivos e sem anúncios
    OK