Cifra Club

Aprenda

Aperte o Play

Simone e Simaria

Cifra: Principal (violão e guitarra)
Já pensou em usar uma coleção de roupas do Cifra Club? Responda as perguntas abaixo e nos ajude nessa missão! →
tom: Bm
[Intro] Em  G  Bm7  A9
        Em  G  Bm7  A9

E|------------------------------------------|
B|-10h12-10--------10h12-10-----------------|
G|----------9h11-9----------9h11-7----------|
D|------------------------------------------|
A|------------------------------------------|
E|------------------------------------------|

E|------------------------------------------|
B|-10h12-10---------------------------------|
G|----------9h11-9h11--7-9-11-7/9-----------|
D|------------------------------------------|
A|------------------------------------------|
E|------------------------------------------|

E|------------------------------------------|
B|------------------------------------------|
G|-11/12\11-7-9p7---------------------------|
D|----------------9~------------------------|
A|------------------------------------------|
E|------------------------------------------|

[Primeira Parte]

Em7                                         G         Bm7
    E sobre ontem à noite, o que eu tenho pra falar: foi bom 
           A9
Aperte o play pra começar de novo
Em7                                G         Bm7
    O teu beijo quente derreteu o meu batom, ô, ô
              A9
Ficaram tuas marcas por todo o meu corpo 

[Pré-Refrão]

Em7                            G
    A luz de neon em volta da cama
              Bm7                               A9
O espelho no teto mostrava o seu corpo em cima do meu
Em7                          G
    Cumplicidade e tudo discreto
             Bm7                           A9
Um casal perfeito até, nas ideias a gente bateu

[Refrão]

            Em7
Ai, ai, ai, ai
                        G
Nosso amor é gostoso demais
          Bm7
Só em pensar
                        A9
Me arrepio no que você fez e faz 
            Em7
Ai, ai, ai, ai
                        G
Nosso amor é gostoso demais
          Bm7
Só em pensar
                        A9
Me arrepio no que você fez e faz 

            Em7
Ai, ai, ai, ai
           G            Bm7                 A9
Aperte o play mais uma vez, pra começar de novo
             Em7
Ai, ai, ai, ai
           G            Bm7                 A9
Aperte o play mais uma vez, pra começar de novo

[Solo] Em7  G  Bm7  A9

E|------------------------------------------|
B|-10h12-10--------10h12-10-----------------|
G|----------9h11-9----------9h11-7----------|
D|------------------------------------------|
A|------------------------------------------|
E|------------------------------------------|

E|------------------------------------------|
B|-10h12-10---------------------------------|
G|----------9h11-9h11--7-9-11-7/9-----------|
D|------------------------------------------|
A|------------------------------------------|
E|------------------------------------------|

E|------------------------------------------|
B|------------------------------------------|
G|-11/12\11-7-9p7---------------------------|
D|----------------9~------------------------|
A|------------------------------------------|
E|------------------------------------------|

[Pré-Refrão]

Em7                            G
    A luz de neon em volta da cama
              Bm7                               A9
O espelho no teto mostrava o seu corpo em cima do meu
Em7                          G
    Cumplicidade e tudo discreto
             Bm7                           A9
Um casal perfeito até, nas ideias a gente bateu

[Refrão]

            Em7
Ai, ai, ai, ai
                        G
Nosso amor é gostoso demais
          Bm7
Só em pensar
                        A9
Me arrepio no que você fez e faz 
            Em7
Ai, ai, ai, ai
                        G
Nosso amor é gostoso demais
          Bm7
Só em pensar
                        A9
Me arrepio no que você fez e faz 

            Em7
Ai, ai, ai, ai
           G            Bm7                 A9
Aperte o play mais uma vez, pra começar de novo
             Em7
Ai, ai, ai, ai
           G            Bm7                 A9
Aperte o play mais uma vez, pra começar de novo

[Final] Em7  G  Bm7  A9

E|------------------------------------------|
B|-10h12-10--------10h12-10-----------------|
G|----------9h11-9----------9h11-7----------|
D|------------------------------------------|
A|------------------------------------------|
E|------------------------------------------|

E|------------------------------------------|
B|-10h12-10---------------------------------|
G|----------9h11-9h11--7-9-11-7/9-----------|
D|------------------------------------------|
A|------------------------------------------|
E|------------------------------------------|

E|------------------------------------------|
B|------------------------------------------|
G|-11/12\11-7-9p7---------------------------|
D|----------------9~------------------------|
A|------------------------------------------|
E|------------------------------------------|
Composição de Gabriel Paran / Morena Mônaco / Nivardo Paz / Simaria
Colaboração e revisão:
  • Thiago Almeida
16.899 exibições
    • ½ Tom
    • Am
    • Bbm
    • Bm
    • Cm
    • C#m
    • Dm
    • Ebm
    • Em
    • Fm
    • F#m
    • Gm
    • G#m
  • Adicionar à lista

    0 comentários

    Ver todos os comentários

    Conseguiu tocar?

    6 Tocaram 2 Ainda não

    Grave um vídeo tocando Aperte o Play e nos envie!

    00:00 / 00:00
    Outros vídeos desta música
    Repetir Qualidade Automático
    Outros vídeos desta música
    00:00 / 00:00
    Automático

    Cifra Club Pro

    Aproveite o Cifra Club com benefícios exclusivos e sem anúncios
    Cifra Club Pro
    Aproveite o Cifra Club com benefícios exclusivos e sem anúncios
    OK