Cifra Club

See The Light

Simple Minds

Cifra: Principal (violão e guitarra)
tom: Bbm
                              
Intro (played by the bass but sometimes doubled live)
     
E|-------------------------|-------------------------|
B|-------------------------|-------------------------|
G|-------------------------|-------------------------|
D|-------------------------|-------------------------|
A|-13-11-------------------|-13-11-------------------|
E|-------13-s11-9-6-9s11-9-|-------13-s11-9-6-9s11-9-|

E|-----------------------------|-------------------------|----------|
B|-----------------------------|-------------------------|----------|
G|-----------------------------|-------------------------|----------|
D|---------10-11---------------|-------------------------|----------|
A|-9h11s13---------------------|-s13-11------------------|----------|
E|---------------11-9-6-9s11-9-|-------13-s11-9-6-9s11-9-|-6-9s11-9-|

Verse
     
Summer's gone
Winter's in your eyes
I can feel the thunderstorms inside
I wake every morning when the cold winds cover me

All I've got's a ghost of what could be

Chorus
      
If you can see the lights shine in front of me
If you can see the lights shine out where you'll be

Interlude
         
E|-------------------------------------|
B|-------------------------------------|
G|---11\10/11/13~-11\10/11\10-10/11\10-| Gtr. 3
D|-------------------------------------|
A|-------------------------------------|
E|-------------------------------------|

Verse
     
I'm in a broken dream I stare out into space
E|-4---------4------4------4-------|
B|---2---2------2------2------2-2~-|
G|-----1---1------1------1---------| Gtr. 1
D|---------------------------------|
A|---------------------------------|
E|---------------------------------|

You know I called you up cos nothing takes your place
E|-4---------4------4------4-------|
B|---2---2------2------2------2-2~-|
G|-----1---1------1------1---------| Gtr. 1
D|---------------------------------|
A|---------------------------------|
E|---------------------------------|

I've got a heart of stone and a sinking deep inside
E|--------------------8-9-8-9--|
B|---------1-2--------9-9-9-9--|
G|-------1-----1-3~---8-----10-| Gtr. 1 & 2
D|-----3--------------------11-|
A|---1-------------------------|
E|

I want to tell you love I'm too proud to cry


Chorus
      
If you can see the lights shine in front of me
E|-4---------4------4------4-------|
B|---2---2------2------2------2-2~-|
G|-----1---1------1------1---------|
D|---------------------------------| Gtr. 1
A|---------------------------------|
E|---------------------------------|

If you can see the lights shout out where you'll be
E|-4---------4------4------4-------|
B|---2---2------2------2------2-2~-|
G|-----1---1------1------1---------| Gtr. 1
D|---------------------------------|
A|---------------------------------|
E|---------------------------------|

Summer's gone and I can't tell you lies
E|--------------------------------|
B|-------1-2------------1-2-------|
G|-----1-----1-3~-----1-----1-3~--| Gtr. 1 & 2
D|---3--------------3-------------|
A|-1--------------1---------------|
E|--------------------------------|

Oh forgive me love I'm too proud to cry
E|-13/16-18-16-13~-|
B|-----------------|
G|-----------------| Gtr. 3
D|-----------------|
A|-----------------|
E|-----------------|

Solo (Gtr. 4)
    

E|-----------------------------------------------------|
B|------------9-9-9-9---------9-9-9-9-9-9-----6-----6/-|
G|------------------------x-x-8-8-8-6-8-8-8-6---6~--6/-|
D|-----8h11p8---------8~/-x-x-6-6-6-6-6-6--------------|
A|-4/8-------------------------------------------------|
E|-----------------------------------------------------|

                         m
E|------------------6~/---13-14-13-14-14-13-16-16~-16-16/-|
B|-------9-9-9p6-9--6~/-----------------------------------|
G|-6h8p6------------6~/-----------------------------------|
D|-6------------------------------------------------------|
A|--------------------------------------------------------|
E|--------------------------------------------------------|

E|----------------------------------8-8-8-8-8-9-9-9/-|
B|----------(6b)7r6--------(6b)7r6--9-9-9-9-9-9-9-9/-|
G|------6-8------------6-8---------------------------|
D|--8/--------------8--------------------------------|
A|--8/--------------8--------------------------------|
E|---------------------------------------------------|

E|-13~-------------------------|
B|--------14----14----16b~-----|
G|-----13----13----13----------|
D|-------------------------11~-|
A|-------------------------11~-|
E|-----------------------------|

Chorus
     
If you can see the lights shine in front of me
E|--------14-13-14--13~-|
B|-16b18~---------------|
G|----------------------| Gtr. 3
D|----------------------|
A|----------------------|
E|----------------------|

If you can see the lights shout out where you'll be
Summer's gone and I can't tell you lies
E|----------|
B|------14~-|
G|-/13~-----| Gtr. 3
D|----------|
A|----------|
E|----------|

Forgive me love I'm too proud to cry
E|-------------14p13-----13b14r13~-|
B|-x-x-x-14-14-------14~-----------|
G|-x-x-x-13-13---------------------| Gtr. 3
D|---------------------------------|
A|---------------------------------|
E|---------------------------------|

Too proud to cry
Too proud to cry
Too proud to cry
Composição de Charlie Burchill
Colaboração e revisão:
  • Vania santo
524 exibições
    • ½ Tom
    • Am
    • Bbm
    • Bm
    • Cm
    • C#m
    • Dm
    • Ebm
    • Em
    • Fm
    • F#m
    • Gm
    • G#m
  • Adicionar à lista

    0 comentários

    Ver todos os comentários

    Conseguiu tocar?

    0 Tocaram 0 Ainda não

    Grave um vídeo tocando See The Light e nos envie!

    00:00 / 00:00
    Outros vídeos desta música
    Repetir Qualidade Automático
    Outros vídeos desta música
    00:00 / 00:00
    Automático

    Cifra Club Pro

    Aproveite o Cifra Club com benefícios exclusivos e sem anúncios
    Cifra Club Pro
    Aproveite o Cifra Club com benefícios exclusivos e sem anúncios
    OK