Cifra Club

Aprenda

Perfect world

Simple Plan

Cifra: Principal (violão e guitarra)
tom: Ab
Introdução:
Riff 1
E|-------------------------------------------|
B|-------------------------------------------|
G|------0-------0----------------------------|
D|----1---1---1---1-----3-------3------------|  
A|--3------------------6-6-----6-6-----------|
E|----------4---------6-------6--------------|

E|-------------------------------------------|
B|-------------------------------------------|
G|------0-------0----------------------------|
D|----1---1---1---1-----3-------333----------|  
A|--3------------------6-6-----6-------------|
E|----------4---------6-------6--------------|
 base do solo:
E|----------------------|
B|----------------------|
G|---5---------8--------|
D|---5----6----8---8----|x2
A|---3----6----6---8----|
E|--------4--------6----|
                                        
Riff 2
E|-----3-----3-----3-------------|
B|-------------4-6---6--4--3>4>3-|
G|-5-5---5-5---------------------|
D|-------------------------------|
A|-------------------------------|
E|-------------------------------|

E|-----3-----3-----3---------------|
B|-------------4-6---6--4--3>4>3---|
G|-5-5---5-5---------------------5-|
D|---------------------------------|
A|---------------------------------|
E|---------------------------------|
>= escorregar 

VERSO1
(Riff 1)
I never could've seen this far,
i never could've seen this coming,
seems like, my worlds falling apart.... yeah
why is everything so hard
i dont think that i can deal
with the things you said it just wont go away...
E|----------------------|
B|----------------------|
G|---5---------8--------|
D|---5----6----8---8----|x2
A|---3----6----6---8----|
E|--------4--------6----|
In a perfect world, this could never happen.
In a perfect world, you'd still be here
And it makes no sense
i could juz pick up the piecse
but to you, this means nothing,nothign at all
E|----------------------|
B|----------------------|
G|---5---------8--------|
D|---5----6----8---8----|x2
A|---3----6----6---8----|
E|--------4--------6----|

|----------|
|----------|
|----------|
|--6----8--|
|--6----8--|
|--4----6--|
                                    -Pm-- -Strum Fast.
Riff 2

VERSE 2
(Riff 1)
I used to think that i was strong
untill the day it all went wrong,
i think i need a miracle to make it thorugh.....yeah
I wished i could bring u bak, 
i wish that i could turn bak time.
cuz i cant let go, i juz cant find my way..yeah
wwihtout you i just cant find my way...

CHORUS
E|----------------------|
B|----------------------|
G|---5---------8--------|
D|---5----6----8---8----|x2
A|---3----6----6---8----|
E|--------4--------6----|

IN a perfect world, this could never happen
in a perfect world,  you'd still be here
and it makes no sense, 
i could just pick up the pieces
but to you, this means nothign,
nothing at all...
E|----------------------|
B|----------------------|
G|---5---------8--------|
D|---5----6----8---8----|x4
A|---3----6----6---8----|
E|--------4--------6----|

|----------|
|----------|
|----------|
|--6----8--|
|--6----8--|
|--4----6--|

I don't know what i should do now,   -
I don't konw where i should go.      - 
I'm stil here waiting for you        -  Acoustic/bass  plays...something..
im lost when you're not around       -
i need to hold on to you             -

i just can't let you.. 
E|--------------------|
B|--------------------|
G|--------------------|
D|---6--6--6--6-------|
A|---6--6--6--6-------|
E|---4--4--4--4-------|
   Pm----------------

goooooooo, yeah ....yeah
Riff 2
E|----------------------|
B|----------------------|
G|---5---------8--------|
D|---5----6----8---8----|x2
A|---3----6----6---8----|
E|--------4--------6----|

IN a perfect world, this could never happen
in a perfect world,  you'd still be here
adn it makes no sense, i could juz pick up the pieces
but to you, this means nothign
nothing at all....
you feel nothing..nothing at alll
|----------|
|----------|
|----------|x2
|--6----8--|
|--6----8--|
|--4----6--|

            [segundo tempo]:NOTHING AT ALLL........
Riff 2
Composição de Chuck Comeau / Pierre Bouvier
Colaboração e revisão:
  • Lucas santos
  • Mateus Braga
  • André Boto
88.698 exibições
    • ½ Tom
    • A
    • Bb
    • B
    • C
    • Db
    • D
    • Eb
    • E
    • F
    • F#
    • G
    • Ab
  • Adicionar à lista

    0 comentários

    Ver todos os comentários

    Conseguiu tocar?

    1 Tocaram 0 Ainda não

    Grave um vídeo tocando Perfect world e nos envie!

    00:00 / 00:00
    Outros vídeos desta música
    Repetir Qualidade Automático
    Outros vídeos desta música
    00:00 / 00:00
    Automático

    Cifra Club Pro

    Aproveite o Cifra Club com benefícios exclusivos e sem anúncios
    Cifra Club Pro
    Aproveite o Cifra Club com benefícios exclusivos e sem anúncios
    OK