Cifra Club

For Your Babies

Simply Red

Cifra: Principal (violão e guitarra)
Tom: A
[Intro] A  A7M  Bm7  Dm

E|---------------------5~-------------------|
B|-5-5~--3/5-5~--3p2-3-----3/6-5/3----0-2~--|
G|---------------------------------2--------|
D|------------------------------------------|
A|------------------------------------------|
E|------------------------------------------|

[Primeira Parte]

A                  E/G#
  You've got that look again
    Bm7                 Dm
The one I hoped I had when I was a lad
A7M                    E/G#
    Your face is just beaming
       Bm7
Your smile got me boasting
    Dm
My pulse roller-coastering

[Pré-Refrão]

A              E/G#
  Any way the four winds that blow
Bm7                     Dm              A7M
    They gonna send me sailing home to you
                      E/G#
Or I'll fly with the force of a rainbow
Bm7                             Dm             A
     The dream of gold will be waiting in your eyes

[Refrão]

      E/G#             F#m           Bm
You know I'd do almost anything you want
     A  E/G#                  F#m             B7
Hey, I      I try to give you everything you need
       Dm
I can see that it gets to you
A                      F#m
   I don't believe in many things
        B7  Dm    A
But in you     I do

[Solo] A  A7M  Bm7  Dm 

E|---------------------5~-------------5-----|
B|-5-5~--3/5-5~--3p2-3-----3/6-5/3----------|
G|---------------------------------2--------|
D|------------------------------------------|
A|------------------------------------------|
E|------------------------------------------|

[Segunda Parte]

A                E/G#
  Her faith is amazing
     Bm7                           Dm
The pain that she goes through contained in the hope for you
A7M                        E/G#
    Your whole world has changed
     Bm7                           Dm
The years spent before seem more cloudy than blue

[Pré-Refrão]

A                    E/G#
  In many ways your baby's controlling
Bm7                        Dm
    When you haven't laid down for days
A                  E/G#
  For the poor no time to be thinking
Bm7                   Dm               A
    They're too busy finding ways, and I

[Refrão]

      E/G#             F#m           Bm
You know I'd do almost anything you want
     A  E/G#                  F#m             B7
Hey, I      I try to give you everything you need
       Dm
I can see that it gets to you
A                      F#m
   I don't believe in many things
        B7  Dm    A
But in you     I do

[Solo] A7M  Bm  Dm
       A  A7M  Bm  Dm

E|--------7h9-7----7-7/9-9------------------|
B|-5~--10-------10----------5-5-------------|
G|------------------------------------------|
D|------------------------------------------|
A|------------------------------------------|
E|------------------------------------------|

E|------------------------------------------|
B|---3/6-5\3---5----------------------------|
G|-2---------2---4/6-6--12h14-12\10-12------|
D|------------------------------------------|
A|------------------------------------------|
E|------------------------------------------|

E|-10/12-12------10/12-10--5/7-5------------|
B|----------10~-------------------2/3-2-----|
G|---------------10/12-10--4/6-4------------|
D|--------------------------------2/3-2-----|
A|------------------------------------------|
E|------------------------------------------|

[Refrão]

     A
Hey, I
      E/G#             F#m           Bm
You know I'd do almost anything you want everyday
     A  E/G#                  F#m             B7
Hey, I      I try to give you everything you need
     Dm
I'll always be there for you

A                     F#m                 B7  Dm
  I don't believe in many things, but in you
A                     F#m                 B7  Dm
  I don't believe in many things, but in you
A                      F#m
   I don't believe in many things
        B7  Dm    A
But in you     I do
exibições 165.207
Acordes para:

    0 comentários

    mostrar mais comentários

    Conseguiu tocar?

    13 tocaram 0 ainda não

    Grave um vídeo tocando For Your Babies e mande pra gente!

    00:00 / 00:00
    outros vídeos desta música
    repetir qualidade Automático
    Outros vídeos desta música
    00:00 / 00:00
    Automático
    OK